  0
SECTION
  2
HEADER
  9
$ACADVER
  1
AC1021
  9
$ACADMAINTVER
 70
    25
  9
$DWGCODEPAGE
  3
ANSI_1252
  9
$LASTSAVEDBY
  1
lenovo
  9
$INSBASE
 10
0.0
 20
0.0
 30
0.0
  9
$EXTMIN
 10
9.140055118110237
 20
-13.04853543307087
 30
0.0
  9
$EXTMAX
 10
15.01338582677165
 20
11.35033464566929
 30
0.0
  9
$LIMMIN
 10
0.0
 20
0.0
  9
$LIMMAX
 10
12.0
 20
9.0
  9
$ORTHOMODE
 70
     0
  9
$REGENMODE
 70
     1
  9
$FILLMODE
 70
     1
  9
$QTEXTMODE
 70
     0
  9
$MIRRTEXT
 70
     1
  9
$LTSCALE
 40
1.0
  9
$ATTMODE
 70
     1
  9
$TEXTSIZE
 40
0.2
  9
$TRACEWID
 40
0.05
  9
$TEXTSTYLE
  7
Standard
  9
$CLAYER
  8
0
  9
$CELTYPE
  6
ByLayer
  9
$CECOLOR
 62
   256
  9
$CELTSCALE
 40
1.0
  9
$DISPSILH
 70
     0
  9
$DIMSCALE
 40
1.0
  9
$DIMASZ
 40
0.18
  9
$DIMEXO
 40
0.0625
  9
$DIMDLI
 40
0.38
  9
$DIMRND
 40
0.0
  9
$DIMDLE
 40
0.0
  9
$DIMEXE
 40
0.18
  9
$DIMTP
 40
0.0
  9
$DIMTM
 40
0.0
  9
$DIMTXT
 40
0.18
  9
$DIMCEN
 40
0.09
  9
$DIMTSZ
 40
0.0
  9
$DIMTOL
 70
     0
  9
$DIMLIM
 70
     0
  9
$DIMTIH
 70
     1
  9
$DIMTOH
 70
     1
  9
$DIMSE1
 70
     0
  9
$DIMSE2
 70
     0
  9
$DIMTAD
 70
     0
  9
$DIMZIN
 70
     0
  9
$DIMBLK
  1

  9
$DIMASO
 70
     1
  9
$DIMSHO
 70
     1
  9
$DIMPOST
  1

  9
$DIMAPOST
  1

  9
$DIMALT
 70
     0
  9
$DIMALTD
 70
     2
  9
$DIMALTF
 40
25.4
  9
$DIMLFAC
 40
1.0
  9
$DIMTOFL
 70
     0
  9
$DIMTVP
 40
0.0
  9
$DIMTIX
 70
     0
  9
$DIMSOXD
 70
     0
  9
$DIMSAH
 70
     0
  9
$DIMBLK1
  1

  9
$DIMBLK2
  1

  9
$DIMSTYLE
  2
Standard
  9
$DIMCLRD
 70
     0
  9
$DIMCLRE
 70
     0
  9
$DIMCLRT
 70
     0
  9
$DIMTFAC
 40
1.0
  9
$DIMGAP
 40
0.09
  9
$DIMJUST
 70
     0
  9
$DIMSD1
 70
     0
  9
$DIMSD2
 70
     0
  9
$DIMTOLJ
 70
     1
  9
$DIMTZIN
 70
     0
  9
$DIMALTZ
 70
     0
  9
$DIMALTTZ
 70
     0
  9
$DIMUPT
 70
     0
  9
$DIMDEC
 70
     4
  9
$DIMTDEC
 70
     4
  9
$DIMALTU
 70
     2
  9
$DIMALTTD
 70
     2
  9
$DIMTXSTY
  7
Standard
  9
$DIMAUNIT
 70
     0
  9
$DIMADEC
 70
     0
  9
$DIMALTRND
 40
0.0
  9
$DIMAZIN
 70
     0
  9
$DIMDSEP
 70
    46
  9
$DIMATFIT
 70
     3
  9
$DIMFRAC
 70
     0
  9
$DIMLDRBLK
  1

  9
$DIMLUNIT
 70
     2
  9
$DIMLWD
 70
    -2
  9
$DIMLWE
 70
    -2
  9
$DIMTMOVE
 70
     0
  9
$DIMFXL
 40
1.0
  9
$DIMFXLON
 70
     0
  9
$DIMJOGANG
 40
0.7853981633974483
  9
$DIMTFILL
 70
     0
  9
$DIMTFILLCLR
 70
     0
  9
$DIMARCSYM
 70
     0
  9
$DIMLTYPE
  6

  9
$DIMLTEX1
  6

  9
$DIMLTEX2
  6

  9
$LUNITS
 70
     2
  9
$LUPREC
 70
     4
  9
$SKETCHINC
 40
0.1
  9
$FILLETRAD
 40
0.0
  9
$AUNITS
 70
     0
  9
$AUPREC
 70
     0
  9
$MENU
  1
.
  9
$ELEVATION
 40
0.0
  9
$PELEVATION
 40
0.0
  9
$THICKNESS
 40
0.0
  9
$LIMCHECK
 70
     0
  9
$CHAMFERA
 40
0.0
  9
$CHAMFERB
 40
0.0
  9
$CHAMFERC
 40
0.0
  9
$CHAMFERD
 40
0.0
  9
$SKPOLY
 70
     0
  9
$TDCREATE
 40
2460068.512354722
  9
$TDUCREATE
 40
2460068.304021389
  9
$TDUPDATE
 40
2460068.512354908
  9
$TDUUPDATE
 40
2460068.304021574
  9
$TDINDWG
 40
0.0000000116
  9
$TDUSRTIMER
 40
0.0000000116
  9
$USRTIMER
 70
     1
  9
$ANGBASE
 50
0.0
  9
$ANGDIR
 70
     0
  9
$PDMODE
 70
     0
  9
$PDSIZE
 40
0.0
  9
$PLINEWID
 40
0.0
  9
$SPLFRAME
 70
     0
  9
$SPLINETYPE
 70
     6
  9
$SPLINESEGS
 70
     8
  9
$HANDSEED
  5
BF
  9
$SURFTAB1
 70
     6
  9
$SURFTAB2
 70
     6
  9
$SURFTYPE
 70
     6
  9
$SURFU
 70
     6
  9
$SURFV
 70
     6
  9
$UCSBASE
  2

  9
$UCSNAME
  2

  9
$UCSORG
 10
0.0
 20
0.0
 30
0.0
  9
$UCSXDIR
 10
1.0
 20
0.0
 30
0.0
  9
$UCSYDIR
 10
0.0
 20
1.0
 30
0.0
  9
$UCSORTHOREF
  2

  9
$UCSORTHOVIEW
 70
     0
  9
$UCSORGTOP
 10
0.0
 20
0.0
 30
0.0
  9
$UCSORGBOTTOM
 10
0.0
 20
0.0
 30
0.0
  9
$UCSORGLEFT
 10
0.0
 20
0.0
 30
0.0
  9
$UCSORGRIGHT
 10
0.0
 20
0.0
 30
0.0
  9
$UCSORGFRONT
 10
0.0
 20
0.0
 30
0.0
  9
$UCSORGBACK
 10
0.0
 20
0.0
 30
0.0
  9
$PUCSBASE
  2

  9
$PUCSNAME
  2

  9
$PUCSORG
 10
0.0
 20
0.0
 30
0.0
  9
$PUCSXDIR
 10
1.0
 20
0.0
 30
0.0
  9
$PUCSYDIR
 10
0.0
 20
1.0
 30
0.0
  9
$PUCSORTHOREF
  2

  9
$PUCSORTHOVIEW
 70
     0
  9
$PUCSORGTOP
 10
0.0
 20
0.0
 30
0.0
  9
$PUCSORGBOTTOM
 10
0.0
 20
0.0
 30
0.0
  9
$PUCSORGLEFT
 10
0.0
 20
0.0
 30
0.0
  9
$PUCSORGRIGHT
 10
0.0
 20
0.0
 30
0.0
  9
$PUCSORGFRONT
 10
0.0
 20
0.0
 30
0.0
  9
$PUCSORGBACK
 10
0.0
 20
0.0
 30
0.0
  9
$USERI1
 70
     0
  9
$USERI2
 70
     0
  9
$USERI3
 70
     0
  9
$USERI4
 70
     0
  9
$USERI5
 70
     0
  9
$USERR1
 40
0.0
  9
$USERR2
 40
0.0
  9
$USERR3
 40
0.0
  9
$USERR4
 40
0.0
  9
$USERR5
 40
0.0
  9
$WORLDVIEW
 70
     1
  9
$SHADEDGE
 70
     3
  9
$SHADEDIF
 70
    70
  9
$TILEMODE
 70
     1
  9
$MAXACTVP
 70
    64
  9
$PINSBASE
 10
0.0
 20
0.0
 30
0.0
  9
$PLIMCHECK
 70
     0
  9
$PEXTMIN
 10
1.000000000000000E+20
 20
1.000000000000000E+20
 30
1.000000000000000E+20
  9
$PEXTMAX
 10
-1.000000000000000E+20
 20
-1.000000000000000E+20
 30
-1.000000000000000E+20
  9
$PLIMMIN
 10
0.0
 20
0.0
  9
$PLIMMAX
 10
12.0
 20
9.0
  9
$UNITMODE
 70
     0
  9
$VISRETAIN
 70
     1
  9
$PLINEGEN
 70
     0
  9
$PSLTSCALE
 70
     1
  9
$TREEDEPTH
 70
  3020
  9
$CMLSTYLE
  2
Standard
  9
$CMLJUST
 70
     0
  9
$CMLSCALE
 40
1.0
  9
$PROXYGRAPHICS
 70
     1
  9
$MEASUREMENT
 70
     0
  9
$CELWEIGHT
370
    -1
  9
$ENDCAPS
280
     0
  9
$JOINSTYLE
280
     0
  9
$LWDISPLAY
290
     0
  9
$INSUNITS
 70
     1
  9
$HYPERLINKBASE
  1

  9
$STYLESHEET
  1

  9
$XEDIT
290
     1
  9
$CEPSNTYPE
380
     0
  9
$PSTYLEMODE
290
     1
  9
$FINGERPRINTGUID
  2
{d02a77dd-1bf4-4794-8f5a-a2954cf8189d}
  9
$VERSIONGUID
  2
{FAEB1C32-E019-11D5-929B-00C0DF256EC4}
  9
$EXTNAMES
290
     1
  9
$PSVPSCALE
 40
0.0
  9
$OLESTARTUP
290
     0
  9
$SORTENTS
280
   127
  9
$INDEXCTL
280
     0
  9
$HIDETEXT
280
     1
  9
$XCLIPFRAME
290
     0
  9
$HALOGAP
280
     0
  9
$OBSCOLOR
 70
   257
  9
$OBSLTYPE
280
     0
  9
$INTERSECTIONDISPLAY
280
     0
  9
$INTERSECTIONCOLOR
 70
   257
  9
$DIMASSOC
280
     2
  9
$PROJECTNAME
  1

  9
$CAMERADISPLAY
290
     0
  9
$LENSLENGTH
 40
50.0
  9
$CAMERAHEIGHT
 40
0.0
  9
$STEPSPERSEC
 40
2.0
  9
$STEPSIZE
 40
6.0
  9
$3DDWFPREC
 40
2.0
  9
$PSOLWIDTH
 40
0.25
  9
$PSOLHEIGHT
 40
4.0
  9
$LOFTANG1
 40
1.570796326794897
  9
$LOFTANG2
 40
1.570796326794897
  9
$LOFTMAG1
 40
0.0
  9
$LOFTMAG2
 40
0.0
  9
$LOFTPARAM
 70
     7
  9
$LOFTNORMALS
280
     1
  9
$LATITUDE
 40
37.795
  9
$LONGITUDE
 40
-122.394
  9
$NORTHDIRECTION
 40
0.0
  9
$TIMEZONE
 70
 -8000
  9
$LIGHTGLYPHDISPLAY
280
     1
  9
$TILEMODELIGHTSYNCH
280
     1
  9
$CMATERIAL
347
44
  9
$SOLIDHIST
280
     0
  9
$SHOWHIST
280
     1
  9
$DWFFRAME
280
     2
  9
$DGNFRAME
280
     2
  9
$REALWORLDSCALE
290
     1
  9
$INTERFERECOLOR
 62
   256
  9
$CSHADOW
280
     0
  9
$SHADOWPLANELOCATION
 40
0.0
  0
ENDSEC
  0
SECTION
  2
CLASSES
  0
CLASS
  1
ACDBDICTIONARYWDFLT
  2
AcDbDictionaryWithDefault
  3
ObjectDBX Classes
 90
        0
 91
        3
280
     0
281
     0
  0
CLASS
  1
VISUALSTYLE
  2
AcDbVisualStyle
  3
ObjectDBX Classes
 90
     4095
 91
        3
280
     0
281
     0
  0
CLASS
  1
MATERIAL
  2
AcDbMaterial
  3
ObjectDBX Classes
 90
     1153
 91
        3
280
     0
281
     0
  0
CLASS
  1
SCALE
  2
AcDbScale
  3
ObjectDBX Classes
 90
     1153
 91
        3
280
     0
281
     0
  0
CLASS
  1
TABLESTYLE
  2
AcDbTableStyle
  3
ObjectDBX Classes
 90
     4095
 91
        3
280
     0
281
     0
  0
CLASS
  1
MLEADERSTYLE
  2
AcDbMLeaderStyle
  3
ACDB_MLEADERSTYLE_CLASS
 90
     4095
 91
        3
280
     0
281
     0
  0
CLASS
  1
SUN
  2
AcDbSun
  3
SCENEOE
 90
     1153
 91
        3
280
     0
281
     0
  0
CLASS
  1
DICTIONARYVAR
  2
AcDbDictionaryVar
  3
ObjectDBX Classes
 90
        0
 91
        3
280
     0
281
     0
  0
CLASS
  1
CELLSTYLEMAP
  2
AcDbCellStyleMap
  3
ObjectDBX Classes
 90
     1152
 91
        3
280
     0
281
     0
  0
ENDSEC
  0
SECTION
  2
TABLES
  0
TABLE
  2
VPORT
  5
8
330
0
100
AcDbSymbolTable
 70
     1
  0
VPORT
  5
29
330
8
100
AcDbSymbolTableRecord
100
AcDbViewportTableRecord
  2
*Active
 70
     0
 10
0.0
 20
0.0
 11
1.0
 21
1.0
 12
10.42990654205607
 22
4.5
 13
0.0
 23
0.0
 14
0.5
 24
0.5
 15
0.5
 25
0.5
 16
0.0
 26
0.0
 36
1.0
 17
0.0
 27
0.0
 37
0.0
 40
9.0
 41
1.972972972850329
 42
50.0
 43
0.0
 44
0.0
 50
0.0
 51
0.0
 71
     0
 72
   100
 73
     1
 74
     3
 75
     0
 76
     0
 77
     0
 78
     0
281
     0
 65
     1
110
0.0
120
0.0
130
0.0
111
1.0
121
0.0
131
0.0
112
0.0
122
1.0
132
0.0
 79
     0
146
0.0
348
2F
 60
     3
 61
     5
292
     1
282
     1
141
0.0
142
0.0
 63
   250
361
5D
  0
ENDTAB
  0
TABLE
  2
LTYPE
  5
5
330
0
100
AcDbSymbolTable
 70
     1
  0
LTYPE
  5
14
330
5
100
AcDbSymbolTableRecord
100
AcDbLinetypeTableRecord
  2
ByBlock
 70
     0
  3

 72
    65
 73
     0
 40
0.0
  0
LTYPE
  5
15
330
5
100
AcDbSymbolTableRecord
100
AcDbLinetypeTableRecord
  2
ByLayer
 70
     0
  3

 72
    65
 73
     0
 40
0.0
  0
LTYPE
  5
16
330
5
100
AcDbSymbolTableRecord
100
AcDbLinetypeTableRecord
  2
Continuous
 70
     0
  3
Solid line
 72
    65
 73
     0
 40
0.0
  0
ENDTAB
  0
TABLE
  2
LAYER
  5
2
330
0
100
AcDbSymbolTable
 70
     2
  0
LAYER
  5
10
330
2
100
AcDbSymbolTableRecord
100
AcDbLayerTableRecord
  2
0
 70
     0
 62
     7
  6
Continuous
370
    -3
390
F
347
46
  0
LAYER
  5
5F
330
2
100
AcDbSymbolTableRecord
100
AcDbLayerTableRecord
  2
Layer 1
 70
     0
 62
     7
  6
Continuous
370
    -3
390
F
347
46
  0
ENDTAB
  0
TABLE
  2
STYLE
  5
3
330
0
100
AcDbSymbolTable
 70
     1
  0
STYLE
  5
11
330
3
100
AcDbSymbolTableRecord
100
AcDbTextStyleTableRecord
  2
Standard
 70
     0
 40
0.0
 41
1.0
 50
0.0
 71
     0
 42
0.2
  3
txt
  4

  0
ENDTAB
  0
TABLE
  2
VIEW
  5
6
330
0
100
AcDbSymbolTable
 70
     0
  0
ENDTAB
  0
TABLE
  2
UCS
  5
7
330
0
100
AcDbSymbolTable
 70
     0
  0
ENDTAB
  0
TABLE
  2
APPID
  5
9
330
0
100
AcDbSymbolTable
 70
     3
  0
APPID
  5
12
330
9
100
AcDbSymbolTableRecord
100
AcDbRegAppTableRecord
  2
ACAD
 70
     0
  0
APPID
  5
5E
330
9
100
AcDbSymbolTableRecord
100
AcDbRegAppTableRecord
  2
ODA
 70
     0
  0
APPID
  5
B7
330
9
100
AcDbSymbolTableRecord
100
AcDbRegAppTableRecord
  2
ACAD_MLEADERVER
 70
     0
  0
ENDTAB
  0
TABLE
  2
DIMSTYLE
  5
A
330
0
100
AcDbSymbolTable
 70
     1
100
AcDbDimStyleTable
  0
DIMSTYLE
105
27
330
A
100
AcDbSymbolTableRecord
100
AcDbDimStyleTableRecord
  2
Standard
 70
     0
178
     0
340
11
  0
ENDTAB
  0
TABLE
  2
BLOCK_RECORD
  5
1
330
0
100
AcDbSymbolTable
 70
     1
  0
BLOCK_RECORD
  5
1F
330
1
100
AcDbSymbolTableRecord
100
AcDbBlockTableRecord
  2
*Model_Space
340
22
 70
     0
280
     1
281
     0
  0
BLOCK_RECORD
  5
1B
330
1
100
AcDbSymbolTableRecord
100
AcDbBlockTableRecord
  2
*Paper_Space
340
1E
 70
     0
280
     1
281
     0
  0
BLOCK_RECORD
  5
23
330
1
100
AcDbSymbolTableRecord
100
AcDbBlockTableRecord
  2
*Paper_Space0
340
26
 70
     0
280
     1
281
     0
  0
ENDTAB
  0
ENDSEC
  0
SECTION
  2
BLOCKS
  0
BLOCK
  5
20
330
1F
100
AcDbEntity
  8
0
100
AcDbBlockBegin
  2
*Model_Space
 70
     0
 10
0.0
 20
0.0
 30
0.0
  3
*Model_Space
  1

  0
ENDBLK
  5
21
330
1F
100
AcDbEntity
  8
0
100
AcDbBlockEnd
  0
BLOCK
  5
1C
330
1B
100
AcDbEntity
 67
     1
  8
0
100
AcDbBlockBegin
  2
*Paper_Space
 70
     0
 10
0.0
 20
0.0
 30
0.0
  3
*Paper_Space
  1

  0
ENDBLK
  5
1D
330
1B
100
AcDbEntity
 67
     1
  8
0
100
AcDbBlockEnd
  0
BLOCK
  5
24
330
23
100
AcDbEntity
  8
0
100
AcDbBlockBegin
  2
*Paper_Space0
 70
     0
 10
0.0
 20
0.0
 30
0.0
  3
*Paper_Space0
  1

  0
ENDBLK
  5
25
330
23
100
AcDbEntity
  8
0
100
AcDbBlockEnd
  0
ENDSEC
  0
SECTION
  2
ENTITIES
  0
SPLINE
  5
60
330
1F
100
AcDbEntity
  8
Layer 1
370
     9
100
AcDbSpline
210
0.0
220
0.0
230
1.0
 70
    11
 71
     3
 72
    92
 73
    88
 74
     0
 42
0.0000000001
 43
0.0000000001
 40
0.0
 40
0.0
 40
0.0
 40
0.0
 40
0.0344827586206897
 40
0.0344827586206897
 40
0.0344827586206897
 40
0.0689655172413793
 40
0.0689655172413793
 40
0.0689655172413793
 40
0.103448275862069
 40
0.103448275862069
 40
0.103448275862069
 40
0.1379310344827586
 40
0.1379310344827586
 40
0.1379310344827586
 40
0.1724137931034483
 40
0.1724137931034483
 40
0.1724137931034483
 40
0.2068965517241379
 40
0.2068965517241379
 40
0.2068965517241379
 40
0.2413793103448276
 40
0.2413793103448276
 40
0.2413793103448276
 40
0.2758620689655172
 40
0.2758620689655172
 40
0.2758620689655172
 40
0.3103448275862069
 40
0.3103448275862069
 40
0.3103448275862069
 40
0.3448275862068966
 40
0.3448275862068966
 40
0.3448275862068966
 40
0.3793103448275862
 40
0.3793103448275862
 40
0.3793103448275862
 40
0.4137931034482759
 40
0.4137931034482759
 40
0.4137931034482759
 40
0.4482758620689655
 40
0.4482758620689655
 40
0.4482758620689655
 40
0.4827586206896551
 40
0.4827586206896551
 40
0.4827586206896551
 40
0.5172413793103449
 40
0.5172413793103449
 40
0.5172413793103449
 40
0.5517241379310345
 40
0.5517241379310345
 40
0.5517241379310345
 40
0.5862068965517241
 40
0.5862068965517241
 40
0.5862068965517241
 40
0.6206896551724138
 40
0.6206896551724138
 40
0.6206896551724138
 40
0.6551724137931034
 40
0.6551724137931034
 40
0.6551724137931034
 40
0.6896551724137931
 40
0.6896551724137931
 40
0.6896551724137931
 40
0.7241379310344828
 40
0.7241379310344828
 40
0.7241379310344828
 40
0.7586206896551724
 40
0.7586206896551724
 40
0.7586206896551724
 40
0.7931034482758621
 40
0.7931034482758621
 40
0.7931034482758621
 40
0.8275862068965517
 40
0.8275862068965517
 40
0.8275862068965517
 40
0.8620689655172413
 40
0.8620689655172413
 40
0.8620689655172413
 40
0.896551724137931
 40
0.896551724137931
 40
0.896551724137931
 40
0.9310344827586207
 40
0.9310344827586207
 40
0.9310344827586207
 40
0.9655172413793103
 40
0.9655172413793103
 40
0.9655172413793103
 40
1.0
 40
1.0
 40
1.0
 40
1.0
 10
12.03128346456693
 20
-8.896082677165355
 30
0.0
 10
12.05637795275591
 20
-8.872586614173228
 30
0.0
 10
12.0765157480315
 20
-8.779429133858267
 30
0.0
 10
12.13088582677165
 20
-8.697047244094488
 30
0.0
 10
12.15822440944882
 20
-8.655633858267716
 30
0.0
 10
12.16110236220472
 20
-8.650602362204724
 30
0.0
 10
12.18141338582677
 20
-8.603665354330708
 30
0.0
 10
12.21858661417323
 20
-8.517751968503937
 30
0.0
 10
12.39579921259842
 20
-8.243988188976378
 30
0.0
 10
12.47244094488189
 20
-8.180228346456692
 30
0.0
 10
12.59041732283465
 20
-8.082082677165355
 30
0.0
 10
12.66708267716535
 20
-8.005996062992127
 30
0.0
 10
12.82009842519685
 20
-7.946622047244094
 30
0.0
 10
12.96297637795276
 20
-7.891177165354331
 30
0.0
 10
13.12870472440945
 20
-7.847614173228346
 30
0.0
 10
13.30396456692913
 20
-7.869224409448819
 30
0.0
 10
13.48188582677165
 20
-7.891161417322834
 30
0.0
 10
13.61229527559055
 20
-7.934909448818898
 30
0.0
 10
13.73370472440945
 20
-8.020263779527559
 30
0.0
 10
13.75903543307087
 20
-8.038070866141732
 30
0.0
 10
13.79783070866142
 20
-8.05773622047244
 30
0.0
 10
13.81975984251969
 20
-8.077330708661417
 30
0.0
 10
13.96153543307087
 20
-8.204031496062992
 30
0.0
 10
14.04404724409449
 20
-8.321728346456693
 30
0.0
 10
14.10684645669291
 20
-8.505893700787402
 30
0.0
 10
14.12756692913386
 20
-8.566661417322834
 30
0.0
 10
14.14310236220472
 20
-8.689433070866142
 30
0.0
 10
14.14132677165354
 20
-8.75935433070866
 30
0.0
 10
14.13553543307087
 20
-8.987102362204725
 30
0.0
 10
14.10897637795276
 20
-9.04401968503937
 30
0.0
 10
14.02720472440945
 20
-9.219389763779528
 30
0.0
 10
13.95963779527559
 20
-9.364299212598425
 30
0.0
 10
13.89374803149606
 20
-9.45484251968504
 30
0.0
 10
13.8007125984252
 20
-9.574562992125983
 30
0.0
 10
13.68425590551181
 20
-9.72442125984252
 30
0.0
 10
13.56088188976378
 20
-9.845952755905511
 30
0.0
 10
13.47199606299213
 20
-9.960925196850393
 30
0.0
 10
13.43464960629921
 20
-10.00923228346457
 30
0.0
 10
13.42946850393701
 20
-9.994161417322834
 30
0.0
 10
13.39687007874016
 20
-10.02915748031496
 30
0.0
 10
13.37316535433071
 20
-10.0546062992126
 30
0.0
 10
13.36540157480315
 20
-10.08085433070866
 30
0.0
 10
13.33530708661417
 20
-10.11078346456693
 30
0.0
 10
13.26588976377953
 20
-10.17982283464567
 30
0.0
 10
13.20102755905512
 20
-10.26703543307087
 30
0.0
 10
13.13685039370079
 20
-10.34133464566929
 30
0.0
 10
12.99551968503937
 20
-10.50494881889764
 30
0.0
 10
12.88462992125984
 20
-10.65999212598425
 30
0.0
 10
12.76495275590551
 20
-10.83722440944882
 30
0.0
 10
12.5602874015748
 20
-11.1403188976378
 30
0.0
 10
12.42618110236221
 20
-11.50364566929134
 30
0.0
 10
12.36742519685039
 20
-11.86838976377953
 30
0.0
 10
12.35742519685039
 20
-11.93047244094488
 30
0.0
 10
12.35912992125984
 20
-12.08661417322835
 30
0.0
 10
12.3365
 20
-12.12577559055118
 30
0.0
 10
12.27296850393701
 20
-12.13574015748032
 30
0.0
 10
12.26808267716535
 20
-12.10654330708661
 30
0.0
 10
12.2298937007874
 20
-12.07930708661417
 30
0.0
 10
12.2298937007874
 20
-12.07930708661417
 30
0.0
 10
11.9583779527559
 20
-11.90238976377953
 30
0.0
 10
11.9583779527559
 20
-11.90238976377953
 30
0.0
 10
11.9583779527559
 20
-11.90238976377953
 30
0.0
 10
11.20591732283465
 20
-11.3199094488189
 30
0.0
 10
11.20591732283465
 20
-11.3199094488189
 30
0.0
 10
10.81862992125984
 20
-10.95459842519685
 30
0.0
 10
10.75344881889764
 20
-10.87013385826772
 30
0.0
 10
10.44855511811024
 20
-10.44658267716535
 30
0.0
 10
10.30744488188976
 20
-10.25055511811024
 30
0.0
 10
10.14596850393701
 20
-9.907444881889763
 30
0.0
 10
10.06460236220472
 20
-9.647370078740158
 30
0.0
 10
9.86655905511811
 20
-9.014350393700788
 30
0.0
 10
9.985271653543307
 20
-8.263023622047244
 30
0.0
 10
10.64933070866142
 20
-8.025622047244095
 30
0.0
 10
10.92054330708661
 20
-7.928661417322835
 30
0.0
 10
11.12824015748031
 20
-7.966074803149606
 30
0.0
 10
11.3778937007874
 20
-8.06825590551181
 30
0.0
 10
11.42144488188976
 20
-8.086082677165354
 30
0.0
 10
11.4454094488189
 20
-8.095015748031496
 30
0.0
 10
11.47809842519685
 20
-8.120452755905513
 30
0.0
 10
11.50858267716535
 20
-8.14417716535433
 30
0.0
 10
11.53392519685039
 20
-8.154795275590551
 30
0.0
 10
11.56337007874016
 20
-8.17844094488189
 30
0.0
 10
11.76195275590551
 20
-8.33790157480315
 30
0.0
 10
11.82029527559055
 20
-8.493846456692914
 30
0.0
 10
11.92690551181102
 20
-8.701964566929133
 30
0.0
 10
11.98342519685039
 20
-8.812295275590552
 30
0.0
 10
11.98079527559055
 20
-8.881346456692913
 30
0.0
 10
12.03128346456693
 20
-8.896082677165355
 30
0.0
  0
SPLINE
  5
61
330
1F
100
AcDbEntity
  8
Layer 1
370
     9
100
AcDbSpline
210
0.0
220
0.0
230
1.0
 70
    11
 71
     3
 72
    38
 73
    34
 74
     0
 42
0.0000000001
 43
0.0000000001
 40
0.0
 40
0.0
 40
0.0
 40
0.0
 40
0.0909090909090909
 40
0.0909090909090909
 40
0.0909090909090909
 40
0.1818181818181818
 40
0.1818181818181818
 40
0.1818181818181818
 40
0.2727272727272727
 40
0.2727272727272727
 40
0.2727272727272727
 40
0.3636363636363636
 40
0.3636363636363636
 40
0.3636363636363636
 40
0.4545454545454546
 40
0.4545454545454546
 40
0.4545454545454546
 40
0.5454545454545454
 40
0.5454545454545454
 40
0.5454545454545454
 40
0.6363636363636364
 40
0.6363636363636364
 40
0.6363636363636364
 40
0.7272727272727273
 40
0.7272727272727273
 40
0.7272727272727273
 40
0.8181818181818182
 40
0.8181818181818182
 40
0.8181818181818182
 40
0.9090909090909092
 40
0.9090909090909092
 40
0.9090909090909092
 40
1.0
 40
1.0
 40
1.0
 40
1.0
 10
10.7518188976378
 20
-4.966141732283464
 30
0.0
 10
10.68807480314961
 20
-4.936397637795276
 30
0.0
 10
10.62766141732283
 20
-4.901437007874016
 30
0.0
 10
10.55588188976378
 20
-4.866511811023622
 30
0.0
 10
10.314
 20
-4.748818897637795
 30
0.0
 10
10.27472440944882
 20
-4.704216535433071
 30
0.0
 10
10.09477165354331
 20
-4.57396062992126
 30
0.0
 10
10.06946850393701
 20
-4.555641732283465
 30
0.0
 10
10.04499606299213
 20
-4.528893700787401
 30
0.0
 10
10.01999212598425
 20
-4.505385826771653
 30
0.0
 10
9.95503937007874
 20
-4.444318897637795
 30
0.0
 10
9.90168503937008
 20
-4.387976377952756
 30
0.0
 10
9.912251968503938
 20
-4.314811023622047
 30
0.0
 10
10.07563779527559
 20
-4.23498031496063
 30
0.0
 10
10.37161023622047
 20
-4.440877952755906
 30
0.0
 10
10.57908267716535
 20
-4.527488188976378
 30
0.0
 10
10.6620157480315
 20
-4.562106299212599
 30
0.0
 10
10.93975590551181
 20
-4.756275590551181
 30
0.0
 10
11.0462125984252
 20
-4.8238031496063
 30
0.0
 10
11.0682125984252
 20
-4.837755905511811
 30
0.0
 10
11.06636614173228
 20
-4.841015748031496
 30
0.0
 10
11.08866929133858
 20
-4.857547244094488
 30
0.0
 10
11.08866929133858
 20
-4.857547244094488
 30
0.0
 10
11.29898031496063
 20
-5.029027559055118
 30
0.0
 10
11.29898031496063
 20
-5.029027559055118
 30
0.0
 10
11.38521653543307
 20
-5.100181102362205
 30
0.0
 10
11.44122834645669
 20
-5.114641732283465
 30
0.0
 10
11.44154330708662
 20
-5.184728346456693
 30
0.0
 10
11.36693700787402
 20
-5.192437007874016
 30
0.0
 10
11.04644488188976
 20
-5.085952755905512
 30
0.0
 10
10.9688031496063
 20
-5.054551181102362
 30
0.0
 10
10.9688031496063
 20
-5.054551181102362
 30
0.0
 10
10.7518188976378
 20
-4.966141732283464
 30
0.0
 10
10.7518188976378
 20
-4.966141732283464
 30
0.0
  0
SPLINE
  5
62
330
1F
100
AcDbEntity
  8
Layer 1
370
     9
100
AcDbSpline
210
0.0
220
0.0
230
1.0
 70
    11
 71
     3
 72
    32
 73
    28
 74
     0
 42
0.0000000001
 43
0.0000000001
 40
0.0
 40
0.0
 40
0.0
 40
0.0
 40
0.1111111111111111
 40
0.1111111111111111
 40
0.1111111111111111
 40
0.2222222222222222
 40
0.2222222222222222
 40
0.2222222222222222
 40
0.3333333333333333
 40
0.3333333333333333
 40
0.3333333333333333
 40
0.4444444444444444
 40
0.4444444444444444
 40
0.4444444444444444
 40
0.5555555555555556
 40
0.5555555555555556
 40
0.5555555555555556
 40
0.6666666666666666
 40
0.6666666666666666
 40
0.6666666666666666
 40
0.7777777777777777
 40
0.7777777777777777
 40
0.7777777777777777
 40
0.8888888888888888
 40
0.8888888888888888
 40
0.8888888888888888
 40
1.0
 40
1.0
 40
1.0
 40
1.0
 10
11.2773031496063
 20
-3.048228346456693
 30
0.0
 10
11.2522874015748
 20
-3.018251968503937
 30
0.0
 10
11.22707086614173
 20
-3.013704724409449
 30
0.0
 10
11.23299606299213
 20
-2.955279527559055
 30
0.0
 10
11.30877559055118
 20
-2.941988188976378
 30
0.0
 10
11.30462992125984
 20
-2.985799212598425
 30
0.0
 10
11.43534645669291
 20
-3.052232283464567
 30
0.0
 10
11.65877165354331
 20
-3.165783464566929
 30
0.0
 10
11.87031102362205
 20
-3.254929133858268
 30
0.0
 10
12.13647637795276
 20
-3.247023622047244
 30
0.0
 10
12.30520078740157
 20
-3.242011811023622
 30
0.0
 10
12.29105905511811
 20
-3.166748031496063
 30
0.0
 10
12.36649606299213
 20
-3.26546062992126
 30
0.0
 10
12.41327952755906
 20
-3.326681102362205
 30
0.0
 10
12.45205905511811
 20
-3.368515748031496
 30
0.0
 10
12.4973188976378
 20
-3.430429133858268
 30
0.0
 10
12.59443307086614
 20
-3.563279527559055
 30
0.0
 10
12.65047244094488
 20
-3.726086614173228
 30
0.0
 10
12.54662598425197
 20
-3.868208661417323
 30
0.0
 10
12.44705905511811
 20
-4.004476377952756
 30
0.0
 10
12.22577952755906
 20
-3.939673228346457
 30
0.0
 10
12.08915748031496
 20
-3.896137795275591
 30
0.0
 10
11.79570472440945
 20
-3.802622047244094
 30
0.0
 10
11.62127559055118
 20
-3.580251968503937
 30
0.0
 10
11.45657874015748
 20
-3.326566929133858
 30
0.0
 10
11.45657874015748
 20
-3.326566929133858
 30
0.0
 10
11.2773031496063
 20
-3.048228346456693
 30
0.0
 10
11.2773031496063
 20
-3.048228346456693
 30
0.0
  0
SPLINE
  5
63
330
1F
100
AcDbEntity
  8
Layer 1
370
     9
100
AcDbSpline
210
0.0
220
0.0
230
1.0
 70
    11
 71
     3
 72
    26
 73
    22
 74
     0
 42
0.0000000001
 43
0.0000000001
 40
0.0
 40
0.0
 40
0.0
 40
0.0
 40
0.1428571428571428
 40
0.1428571428571428
 40
0.1428571428571428
 40
0.2857142857142857
 40
0.2857142857142857
 40
0.2857142857142857
 40
0.4285714285714285
 40
0.4285714285714285
 40
0.4285714285714285
 40
0.5714285714285714
 40
0.5714285714285714
 40
0.5714285714285714
 40
0.7142857142857142
 40
0.7142857142857142
 40
0.7142857142857142
 40
0.8571428571428571
 40
0.8571428571428571
 40
0.8571428571428571
 40
1.0
 40
1.0
 40
1.0
 40
1.0
 10
11.64048818897638
 20
0.7951417322834645
 30
0.0
 10
11.73808267716535
 20
0.687255905511811
 30
0.0
 10
11.7768937007874
 20
0.5654803149606299
 30
0.0
 10
11.82649606299213
 20
0.4560826771653543
 30
0.0
 10
11.87092519685039
 20
0.3580984251968504
 30
0.0
 10
11.94563385826772
 20
0.2526692913385827
 30
0.0
 10
11.86014566929134
 20
0.247751968503937
 30
0.0
 10
11.78664960629921
 20
0.2435275590551181
 30
0.0
 10
11.52681102362205
 20
0.4217283464566929
 30
0.0
 10
11.46088582677165
 20
0.4818818897637795
 30
0.0
 10
11.33117322834646
 20
0.6002283464566929
 30
0.0
 10
11.16654330708661
 20
0.8001259842519685
 30
0.0
 10
11.10073228346457
 20
0.9615590551181102
 30
0.0
 10
11.07168503937008
 20
1.032811023622047
 30
0.0
 10
11.06681496062992
 20
1.086279527559055
 30
0.0
 10
11.13727952755906
 20
1.110015748031496
 30
0.0
 10
11.21088582677165
 20
1.134807086614173
 30
0.0
 10
11.3639842519685
 20
1.041755905511811
 30
0.0
 10
11.4219842519685
 20
0.9962677165354331
 30
0.0
 10
11.51348031496063
 20
0.924503937007874
 30
0.0
 10
11.56279921259843
 20
0.881023622047244
 30
0.0
 10
11.64048818897638
 20
0.7951417322834645
 30
0.0
  0
SPLINE
  5
64
330
1F
100
AcDbEntity
  8
Layer 1
370
     9
100
AcDbSpline
210
0.0
220
0.0
230
1.0
 70
    11
 71
     3
 72
    38
 73
    34
 74
     0
 42
0.0000000001
 43
0.0000000001
 40
0.0
 40
0.0
 40
0.0
 40
0.0
 40
0.0909090909090909
 40
0.0909090909090909
 40
0.0909090909090909
 40
0.1818181818181818
 40
0.1818181818181818
 40
0.1818181818181818
 40
0.2727272727272727
 40
0.2727272727272727
 40
0.2727272727272727
 40
0.3636363636363636
 40
0.3636363636363636
 40
0.3636363636363636
 40
0.4545454545454546
 40
0.4545454545454546
 40
0.4545454545454546
 40
0.5454545454545454
 40
0.5454545454545454
 40
0.5454545454545454
 40
0.6363636363636364
 40
0.6363636363636364
 40
0.6363636363636364
 40
0.7272727272727273
 40
0.7272727272727273
 40
0.7272727272727273
 40
0.8181818181818182
 40
0.8181818181818182
 40
0.8181818181818182
 40
0.9090909090909092
 40
0.9090909090909092
 40
0.9090909090909092
 40
1.0
 40
1.0
 40
1.0
 40
1.0
 10
13.46111417322835
 20
3.005850393700787
 30
0.0
 10
13.41972047244094
 20
3.011791338582677
 30
0.0
 10
13.30983070866142
 20
2.990787401574803
 30
0.0
 10
13.24255118110236
 20
2.989866141732283
 30
0.0
 10
13.0996811023622
 20
2.987909448818898
 30
0.0
 10
12.79507086614173
 20
2.932232283464567
 30
0.0
 10
12.84909448818898
 20
3.036177165354331
 30
0.0
 10
12.85681496062992
 20
3.051035433070866
 30
0.0
 10
12.95286614173228
 20
3.133023622047244
 30
0.0
 10
12.97747637795276
 20
3.147917322834646
 30
0.0
 10
13.09896850393701
 20
3.221464566929134
 30
0.0
 10
13.23203543307087
 20
3.189944881889764
 30
0.0
 10
13.36959842519685
 20
3.163196850393701
 30
0.0
 10
13.50158661417323
 20
3.137535433070866
 30
0.0
 10
13.64801181102362
 20
3.120358267716536
 30
0.0
 10
13.78151968503937
 20
3.105736220472441
 30
0.0
 10
13.84796456692913
 20
3.09846062992126
 30
0.0
 10
13.98911023622047
 20
3.128496062992126
 30
0.0
 10
13.94855118110236
 20
3.05659842519685
 30
0.0
 10
13.93841732283465
 20
3.038637795275591
 30
0.0
 10
13.84751181102362
 20
2.956645669291339
 30
0.0
 10
13.8281968503937
 20
2.936275590551181
 30
0.0
 10
13.76281889763779
 20
2.867322834645669
 30
0.0
 10
13.6515905511811
 20
2.794015748031496
 30
0.0
 10
13.56424803149606
 20
2.732771653543307
 30
0.0
 10
13.14616141732284
 20
2.439641732283464
 30
0.0
 10
12.85518503937008
 20
2.64948031496063
 30
0.0
 10
12.90307086614173
 20
2.71705905511811
 30
0.0
 10
12.92412992125984
 20
2.733023622047244
 30
0.0
 10
13.05141338582677
 20
2.732897637795276
 30
0.0
 10
13.09338976377953
 20
2.745062992125984
 30
0.0
 10
13.20986220472441
 20
2.778818897637795
 30
0.0
 10
13.4508188976378
 20
2.919622047244094
 30
0.0
 10
13.46111417322835
 20
3.005850393700787
 30
0.0
  0
SPLINE
  5
65
330
1F
100
AcDbEntity
  8
Layer 1
370
     9
100
AcDbSpline
210
0.0
220
0.0
230
1.0
 70
    11
 71
     3
 72
    44
 73
    40
 74
     0
 42
0.0000000001
 43
0.0000000001
 40
0.0
 40
0.0
 40
0.0
 40
0.0
 40
0.0769230769230769
 40
0.0769230769230769
 40
0.0769230769230769
 40
0.1538461538461539
 40
0.1538461538461539
 40
0.1538461538461539
 40
0.2307692307692308
 40
0.2307692307692308
 40
0.2307692307692308
 40
0.3076923076923077
 40
0.3076923076923077
 40
0.3076923076923077
 40
0.3846153846153846
 40
0.3846153846153846
 40
0.3846153846153846
 40
0.4615384615384616
 40
0.4615384615384616
 40
0.4615384615384616
 40
0.5384615384615385
 40
0.5384615384615385
 40
0.5384615384615385
 40
0.6153846153846154
 40
0.6153846153846154
 40
0.6153846153846154
 40
0.6923076923076923
 40
0.6923076923076923
 40
0.6923076923076923
 40
0.7692307692307693
 40
0.7692307692307693
 40
0.7692307692307693
 40
0.8461538461538463
 40
0.8461538461538463
 40
0.8461538461538463
 40
0.9230769230769231
 40
0.9230769230769231
 40
0.9230769230769231
 40
1.0
 40
1.0
 40
1.0
 40
1.0
 10
12.22179921259842
 20
3.807807086614173
 30
0.0
 10
12.22212204724409
 20
4.052925196850394
 30
0.0
 10
12.24514566929134
 20
4.288334645669291
 30
0.0
 10
12.24450393700787
 20
4.532413385826771
 30
0.0
 10
12.24450393700787
 20
4.532413385826771
 30
0.0
 10
12.28366141732283
 20
5.252755905511811
 30
0.0
 10
12.28366141732283
 20
5.252755905511811
 30
0.0
 10
12.29403543307087
 20
5.365027559055118
 30
0.0
 10
12.30259842519685
 20
5.498271653543307
 30
0.0
 10
12.30694488188976
 20
5.609748031496063
 30
0.0
 10
12.30944094488189
 20
5.673822834645669
 30
0.0
 10
12.32151181102362
 20
5.724858267716535
 30
0.0
 10
12.3236968503937
 20
5.781905511811024
 30
0.0
 10
12.32587795275591
 20
5.838854330708662
 30
0.0
 10
12.3282874015748
 20
5.910346456692913
 30
0.0
 10
12.39764173228346
 20
5.863051181102362
 30
0.0
 10
12.49193700787402
 20
5.798744094488189
 30
0.0
 10
12.62807480314961
 20
5.692472440944882
 30
0.0
 10
12.7008188976378
 20
5.602078740157481
 30
0.0
 10
12.8593188976378
 20
5.405125984251969
 30
0.0
 10
12.87985826771654
 20
5.373496062992126
 30
0.0
 10
12.76034645669291
 20
5.262543307086614
 30
0.0
 10
12.69578346456693
 20
5.20259842519685
 30
0.0
 10
12.64096456692913
 20
5.133909448818898
 30
0.0
 10
12.58610236220473
 20
5.065007874015748
 30
0.0
 10
12.38968503937008
 20
4.818338582677165
 30
0.0
 10
12.28884645669291
 20
4.281748031496063
 30
0.0
 10
12.48417716535433
 20
4.051031496062993
 30
0.0
 10
12.5192125984252
 20
4.009649606299212
 30
0.0
 10
12.54379133858268
 20
3.977952755905512
 30
0.0
 10
12.49886220472441
 20
3.921956692913386
 30
0.0
 10
12.44423622047244
 20
3.853866141732283
 30
0.0
 10
12.40481496062992
 20
3.760070866141732
 30
0.0
 10
12.3671968503937
 20
3.681885826771654
 30
0.0
 10
12.27086614173228
 20
3.481681102362205
 30
0.0
 10
12.32217322834646
 20
3.438751968503937
 30
0.0
 10
12.22783464566929
 20
3.442551181102362
 30
0.0
 10
12.20566535433071
 20
3.504188976377953
 30
0.0
 10
12.22168897637795
 20
3.722043307086614
 30
0.0
 10
12.22179921259842
 20
3.807807086614173
 30
0.0
  0
SPLINE
  5
66
330
1F
100
AcDbEntity
  8
Layer 1
370
     9
100
AcDbSpline
210
0.0
220
0.0
230
1.0
 70
    11
 71
     3
 72
    68
 73
    64
 74
     0
 42
0.0000000001
 43
0.0000000001
 40
0.0
 40
0.0
 40
0.0
 40
0.0
 40
0.0476190476190476
 40
0.0476190476190476
 40
0.0476190476190476
 40
0.0952380952380952
 40
0.0952380952380952
 40
0.0952380952380952
 40
0.1428571428571428
 40
0.1428571428571428
 40
0.1428571428571428
 40
0.1904761904761905
 40
0.1904761904761905
 40
0.1904761904761905
 40
0.2380952380952381
 40
0.2380952380952381
 40
0.2380952380952381
 40
0.2857142857142857
 40
0.2857142857142857
 40
0.2857142857142857
 40
0.3333333333333333
 40
0.3333333333333333
 40
0.3333333333333333
 40
0.3809523809523809
 40
0.3809523809523809
 40
0.3809523809523809
 40
0.4285714285714285
 40
0.4285714285714285
 40
0.4285714285714285
 40
0.4761904761904762
 40
0.4761904761904762
 40
0.4761904761904762
 40
0.5238095238095237
 40
0.5238095238095237
 40
0.5238095238095237
 40
0.5714285714285714
 40
0.5714285714285714
 40
0.5714285714285714
 40
0.6190476190476191
 40
0.6190476190476191
 40
0.6190476190476191
 40
0.6666666666666666
 40
0.6666666666666666
 40
0.6666666666666666
 40
0.7142857142857142
 40
0.7142857142857142
 40
0.7142857142857142
 40
0.7619047619047619
 40
0.7619047619047619
 40
0.7619047619047619
 40
0.8095238095238095
 40
0.8095238095238095
 40
0.8095238095238095
 40
0.8571428571428571
 40
0.8571428571428571
 40
0.8571428571428571
 40
0.9047619047619047
 40
0.9047619047619047
 40
0.9047619047619047
 40
0.9523809523809523
 40
0.9523809523809523
 40
0.9523809523809523
 40
1.0
 40
1.0
 40
1.0
 40
1.0
 10
12.64245669291339
 20
4.189929133858268
 30
0.0
 10
12.62393700787402
 20
4.236177165354331
 30
0.0
 10
12.62275984251968
 20
4.504145669291338
 30
0.0
 10
12.62902755905512
 20
4.570681102362204
 30
0.0
 10
12.63750787401575
 20
4.660700787401574
 30
0.0
 10
12.68594094488189
 20
4.798874015748032
 30
0.0
 10
12.72476377952756
 20
4.858988188976378
 30
0.0
 10
12.7379842519685
 20
4.879456692913386
 30
0.0
 10
12.75069291338583
 20
4.889476377952755
 30
0.0
 10
12.76625196850394
 20
4.913
 30
0.0
 10
12.83267716535433
 20
5.013433070866141
 30
0.0
 10
13.02948818897638
 20
5.156889763779527
 30
0.0
 10
13.13500393700787
 20
5.212523622047244
 30
0.0
 10
13.21641732283465
 20
5.255448818897638
 30
0.0
 10
13.30611023622047
 20
5.298090551181103
 30
0.0
 10
13.40111023622047
 20
5.337200787401575
 30
0.0
 10
13.45700393700787
 20
5.360212598425197
 30
0.0
 10
13.49435039370079
 20
5.361889763779527
 30
0.0
 10
13.54099212598425
 20
5.388114173228346
 30
0.0
 10
13.58970472440945
 20
5.415496062992126
 30
0.0
 10
13.62862598425197
 20
5.422334645669292
 30
0.0
 10
13.67970078740158
 20
5.439964566929134
 30
0.0
 10
13.77608267716535
 20
5.473224409448819
 30
0.0
 10
13.86107086614173
 20
5.503350393700788
 30
0.0
 10
13.95843700787402
 20
5.542669291338583
 30
0.0
 10
14.12929527559055
 20
5.611661417322835
 30
0.0
 10
14.18999212598425
 20
5.678248031496063
 30
0.0
 10
14.16712992125984
 20
5.528027559055118
 30
0.0
 10
14.13596456692913
 20
5.323204724409448
 30
0.0
 10
14.14388976377953
 20
5.115374015748031
 30
0.0
 10
14.09525196850394
 20
4.824169291338583
 30
0.0
 10
14.02084251968504
 20
4.378696850393701
 30
0.0
 10
13.90954330708662
 20
4.052984251968504
 30
0.0
 10
13.50159842519685
 20
3.882834645669291
 30
0.0
 10
13.38959842519685
 20
3.836122047244094
 30
0.0
 10
13.29194094488189
 20
3.830330708661417
 30
0.0
 10
13.17744488188976
 20
3.866818897637795
 30
0.0
 10
13.12749212598425
 20
3.882740157480315
 30
0.0
 10
13.09215354330709
 20
3.904594488188976
 30
0.0
 10
13.04094881889764
 20
3.920818897637795
 30
0.0
 10
12.90634251968504
 20
3.963468503937008
 30
0.0
 10
12.88285433070866
 20
3.94703937007874
 30
0.0
 10
12.8886811023622
 20
4.006877952755906
 30
0.0
 10
12.8886811023622
 20
4.006877952755906
 30
0.0
 10
12.9988188976378
 20
4.18503937007874
 30
0.0
 10
12.9988188976378
 20
4.18503937007874
 30
0.0
 10
13.02618110236221
 20
4.21840157480315
 30
0.0
 10
13.04905511811024
 20
4.251003937007874
 30
0.0
 10
13.07500787401575
 20
4.28053937007874
 30
0.0
 10
13.07500787401575
 20
4.28053937007874
 30
0.0
 10
13.32307874015748
 20
4.528240157480315
 30
0.0
 10
13.32307874015748
 20
4.528240157480315
 30
0.0
 10
13.40145275590551
 20
4.607984251968504
 30
0.0
 10
13.48287007874016
 20
4.647251968503937
 30
0.0
 10
13.48359842519685
 20
4.687570866141733
 30
0.0
 10
13.45024015748031
 20
4.695645669291339
 30
0.0
 10
13.24805905511811
 20
4.643555118110236
 30
0.0
 10
13.21087795275591
 20
4.63153937007874
 30
0.0
 10
13.02964960629921
 20
4.57296062992126
 30
0.0
 10
12.932
 20
4.474232283464567
 30
0.0
 10
12.81063779527559
 20
4.354181102362205
 30
0.0
 10
12.67306299212598
 20
4.218090551181103
 30
0.0
 10
12.72968897637795
 20
4.188043307086614
 30
0.0
 10
12.64245669291339
 20
4.189929133858268
 30
0.0
  0
SPLINE
  5
67
330
1F
100
AcDbEntity
  8
Layer 1
370
     9
100
AcDbSpline
210
0.0
220
0.0
230
1.0
 70
    11
 71
     3
 72
    29
 73
    25
 74
     0
 42
0.0000000001
 43
0.0000000001
 40
0.0
 40
0.0
 40
0.0
 40
0.0
 40
0.125
 40
0.125
 40
0.125
 40
0.25
 40
0.25
 40
0.25
 40
0.375
 40
0.375
 40
0.375
 40
0.5
 40
0.5
 40
0.5
 40
0.625
 40
0.625
 40
0.625
 40
0.75
 40
0.75
 40
0.75
 40
0.875
 40
0.875
 40
0.875
 40
1.0
 40
1.0
 40
1.0
 40
1.0
 10
12.03656692913386
 20
4.928838582677165
 30
0.0
 10
11.95621653543307
 20
4.935070866141732
 30
0.0
 10
11.98436220472441
 20
4.987051181102363
 30
0.0
 10
11.97366141732283
 20
5.104007874015748
 30
0.0
 10
11.9691220472441
 20
5.153610236220472
 30
0.0
 10
11.95463779527559
 20
5.237610236220473
 30
0.0
 10
11.94520866141732
 20
5.297248031496063
 30
0.0
 10
11.92372440944882
 20
5.43309842519685
 30
0.0
 10
11.91849212598425
 20
5.563374015748032
 30
0.0
 10
11.90333464566929
 20
5.701244094488189
 30
0.0
 10
11.90333464566929
 20
5.701244094488189
 30
0.0
 10
11.83333464566929
 20
6.298259842519685
 30
0.0
 10
11.83333464566929
 20
6.298259842519685
 30
0.0
 10
11.83196456692913
 20
6.335440944881889
 30
0.0
 10
11.88603149606299
 20
6.415275590551181
 30
0.0
 10
11.90267716535433
 20
6.442417322834646
 30
0.0
 10
11.99609448818898
 20
6.445858267716535
 30
0.0
 10
11.95988188976378
 20
6.414204724409449
 30
0.0
 10
11.99806299212598
 20
6.349251968503937
 30
0.0
 10
12.11510236220473
 20
6.15015748031496
 30
0.0
 10
12.0772125984252
 20
6.298692913385826
 30
0.0
 10
12.06751968503937
 20
5.895976377952756
 30
0.0
 10
12.06548818897638
 20
5.811582677165354
 30
0.0
 10
12.05234251968504
 20
4.969082677165354
 30
0.0
 10
12.03656692913386
 20
4.928838582677165
 30
0.0
  0
SPLINE
  5
68
330
1F
100
AcDbEntity
  8
Layer 1
370
     9
100
AcDbSpline
210
0.0
220
0.0
230
1.0
 70
    11
 71
     3
 72
    29
 73
    25
 74
     0
 42
0.0000000001
 43
0.0000000001
 40
0.0
 40
0.0
 40
0.0
 40
0.0
 40
0.125
 40
0.125
 40
0.125
 40
0.25
 40
0.25
 40
0.25
 40
0.375
 40
0.375
 40
0.375
 40
0.5
 40
0.5
 40
0.5
 40
0.625
 40
0.625
 40
0.625
 40
0.75
 40
0.75
 40
0.75
 40
0.875
 40
0.875
 40
0.875
 40
1.0
 40
1.0
 40
1.0
 40
1.0
 10
10.89714173228347
 20
5.83898031496063
 30
0.0
 10
10.88711811023622
 20
5.902342519685039
 30
0.0
 10
10.93002362204724
 20
6.224574803149606
 30
0.0
 10
10.94052362204724
 20
6.306208661417323
 30
0.0
 10
10.95922834645669
 20
6.451633858267717
 30
0.0
 10
10.98718503937008
 20
6.595956692913385
 30
0.0
 10
11.04456692913386
 20
6.710240157480315
 30
0.0
 10
11.0950157480315
 20
6.810700787401575
 30
0.0
 10
11.18329133858268
 20
6.941952755905512
 30
0.0
 10
11.27946456692913
 20
6.98194094488189
 30
0.0
 10
11.35386220472441
 20
7.012874015748031
 30
0.0
 10
11.42957086614173
 20
6.98655905511811
 30
0.0
 10
11.50056692913386
 20
6.966850393700788
 30
0.0
 10
11.59288582677165
 20
6.941224409448819
 30
0.0
 10
11.61033464566929
 20
6.950015748031496
 30
0.0
 10
11.66312598425197
 20
6.881948818897638
 30
0.0
 10
11.79281102362205
 20
6.714736220472441
 30
0.0
 10
11.79639763779528
 20
6.656543307086614
 30
0.0
 10
11.72164173228346
 20
6.529771653543307
 30
0.0
 10
11.59406299212598
 20
6.313413385826772
 30
0.0
 10
11.23375196850394
 20
6.112972440944882
 30
0.0
 10
11.04343700787402
 20
5.93957874015748
 30
0.0
 10
10.99977559055118
 20
5.899799212598425
 30
0.0
 10
10.96844094488189
 20
5.832330708661417
 30
0.0
 10
10.89714173228347
 20
5.83898031496063
 30
0.0
  0
SPLINE
  5
69
330
1F
100
AcDbEntity
  8
Layer 1
370
     9
100
AcDbSpline
210
0.0
220
0.0
230
1.0
 70
    11
 71
     3
 72
    32
 73
    28
 74
     0
 42
0.0000000001
 43
0.0000000001
 40
0.0
 40
0.0
 40
0.0
 40
0.0
 40
0.1111111111111111
 40
0.1111111111111111
 40
0.1111111111111111
 40
0.2222222222222222
 40
0.2222222222222222
 40
0.2222222222222222
 40
0.3333333333333333
 40
0.3333333333333333
 40
0.3333333333333333
 40
0.4444444444444444
 40
0.4444444444444444
 40
0.4444444444444444
 40
0.5555555555555556
 40
0.5555555555555556
 40
0.5555555555555556
 40
0.6666666666666666
 40
0.6666666666666666
 40
0.6666666666666666
 40
0.7777777777777777
 40
0.7777777777777777
 40
0.7777777777777777
 40
0.8888888888888888
 40
0.8888888888888888
 40
0.8888888888888888
 40
1.0
 40
1.0
 40
1.0
 40
1.0
 10
12.09758661417323
 20
6.600594488188976
 30
0.0
 10
12.07100787401575
 20
6.664759842519685
 30
0.0
 10
12.04435039370079
 20
6.710389763779528
 30
0.0
 10
12.01783464566929
 20
6.778901574803149
 30
0.0
 10
11.99876377952756
 20
6.828169291338583
 30
0.0
 10
11.92043307086614
 20
6.911562992125984
 30
0.0
 10
11.96381102362205
 20
6.937543307086615
 30
0.0
 10
11.99605511811024
 20
6.956858267716536
 30
0.0
 10
12.0304842519685
 20
6.912822834645669
 30
0.0
 10
12.18388582677165
 20
6.915795275590551
 30
0.0
 10
12.62653149606299
 20
6.924377952755906
 30
0.0
 10
12.58377559055118
 20
6.969775590551181
 30
0.0
 10
12.72587007874016
 20
6.723732283464567
 30
0.0
 10
12.81459842519685
 20
6.570102362204724
 30
0.0
 10
12.79043307086614
 20
6.48659842519685
 30
0.0
 10
12.79823228346457
 20
6.289370078740157
 30
0.0
 10
12.79996850393701
 20
6.245507874015748
 30
0.0
 10
12.82282283464567
 20
5.829
 30
0.0
 10
12.81315354330709
 20
5.819783464566929
 30
0.0
 10
12.77271653543307
 20
5.781228346456693
 30
0.0
 10
12.70042519685039
 20
5.904444881889764
 30
0.0
 10
12.68038582677165
 20
5.925169291338583
 30
0.0
 10
12.68038582677165
 20
5.925169291338583
 30
0.0
 10
12.4206062992126
 20
6.170551181102362
 30
0.0
 10
12.4206062992126
 20
6.170551181102362
 30
0.0
 10
12.31724803149606
 20
6.258090551181103
 30
0.0
 10
12.14545275590551
 20
6.485035433070866
 30
0.0
 10
12.09758661417323
 20
6.600594488188976
 30
0.0
  0
SPLINE
  5
6A
330
1F
100
AcDbEntity
  8
Layer 1
370
     9
100
AcDbSpline
210
0.0
220
0.0
230
1.0
 70
    11
 71
     3
 72
    38
 73
    34
 74
     0
 42
0.0000000001
 43
0.0000000001
 40
0.0
 40
0.0
 40
0.0
 40
0.0
 40
0.0909090909090909
 40
0.0909090909090909
 40
0.0909090909090909
 40
0.1818181818181818
 40
0.1818181818181818
 40
0.1818181818181818
 40
0.2727272727272727
 40
0.2727272727272727
 40
0.2727272727272727
 40
0.3636363636363636
 40
0.3636363636363636
 40
0.3636363636363636
 40
0.4545454545454546
 40
0.4545454545454546
 40
0.4545454545454546
 40
0.5454545454545454
 40
0.5454545454545454
 40
0.5454545454545454
 40
0.6363636363636364
 40
0.6363636363636364
 40
0.6363636363636364
 40
0.7272727272727273
 40
0.7272727272727273
 40
0.7272727272727273
 40
0.8181818181818182
 40
0.8181818181818182
 40
0.8181818181818182
 40
0.9090909090909092
 40
0.9090909090909092
 40
0.9090909090909092
 40
1.0
 40
1.0
 40
1.0
 40
1.0
 10
12.90054330708661
 20
6.965389763779528
 30
0.0
 10
12.8967874015748
 20
7.025826771653543
 30
0.0
 10
12.92207480314961
 20
7.021956692913386
 30
0.0
 10
12.9724842519685
 20
7.033586614173228
 30
0.0
 10
13.13350393700787
 20
7.070744094488189
 30
0.0
 10
13.27985826771654
 20
7.180547244094488
 30
0.0
 10
13.40285826771654
 20
7.289795275590551
 30
0.0
 10
13.4377125984252
 20
7.320759842519685
 30
0.0
 10
13.51312598425197
 20
7.41703937007874
 30
0.0
 10
13.53156692913386
 20
7.429917322834646
 30
0.0
 10
13.60554330708661
 20
7.481570866141732
 30
0.0
 10
13.54027559055118
 20
7.365625984251968
 30
0.0
 10
13.75120078740157
 20
7.253342519685039
 30
0.0
 10
13.84018110236221
 20
7.205976377952756
 30
0.0
 10
13.95305511811024
 20
7.169129921259842
 30
0.0
 10
14.05487007874016
 20
7.146224409448819
 30
0.0
 10
14.14809448818898
 20
7.125255905511811
 30
0.0
 10
14.22753149606299
 20
7.113602362204724
 30
0.0
 10
14.23761023622047
 20
7.055051181102362
 30
0.0
 10
14.19220866141732
 20
7.031192913385826
 30
0.0
 10
14.13717716535433
 20
7.043240157480315
 30
0.0
 10
14.07255118110236
 20
7.048208661417322
 30
0.0
 10
13.96780708661417
 20
7.056259842519685
 30
0.0
 10
13.68533858267716
 20
7.006240157480315
 30
0.0
 10
13.58712204724409
 20
6.991444881889763
 30
0.0
 10
13.49211417322835
 20
6.977133858267717
 30
0.0
 10
13.34650787401575
 20
6.958645669291339
 30
0.0
 10
13.251
 20
6.952811023622047
 30
0.0
 10
13.20514960629921
 20
6.950007874015748
 30
0.0
 10
13.13813385826772
 20
6.96396062992126
 30
0.0
 10
13.08053937007874
 20
6.964720472440945
 30
0.0
 10
13.01803149606299
 20
6.965547244094489
 30
0.0
 10
12.95723622047244
 20
6.951917322834646
 30
0.0
 10
12.90054330708661
 20
6.965389763779528
 30
0.0
  0
SPLINE
  5
6B
330
1F
100
AcDbEntity
  8
Layer 1
370
     9
100
AcDbSpline
210
0.0
220
0.0
230
1.0
 70
    11
 71
     3
 72
    29
 73
    25
 74
     0
 42
0.0000000001
 43
0.0000000001
 40
0.0
 40
0.0
 40
0.0
 40
0.0
 40
0.125
 40
0.125
 40
0.125
 40
0.25
 40
0.25
 40
0.25
 40
0.375
 40
0.375
 40
0.375
 40
0.5
 40
0.5
 40
0.5
 40
0.625
 40
0.625
 40
0.625
 40
0.75
 40
0.75
 40
0.75
 40
0.875
 40
0.875
 40
0.875
 40
1.0
 40
1.0
 40
1.0
 40
1.0
 10
10.1144094488189
 20
7.106409448818898
 30
0.0
 10
10.11415748031496
 20
7.15707874015748
 30
0.0
 10
10.12360236220472
 20
7.165051181102362
 30
0.0
 10
10.15994881889764
 20
7.185578740157481
 30
0.0
 10
10.28544094488189
 20
7.256437007874016
 30
0.0
 10
10.36910236220472
 20
7.355673228346457
 30
0.0
 10
10.47195669291339
 20
7.454838582677166
 30
0.0
 10
10.47195669291339
 20
7.454838582677166
 30
0.0
 10
10.58150787401575
 20
7.578208661417323
 30
0.0
 10
10.58150787401575
 20
7.578208661417323
 30
0.0
 10
10.64788188976378
 20
7.568515748031496
 30
0.0
 10
10.63681496062992
 20
7.525885826771654
 30
0.0
 10
10.67168503937008
 20
7.473527559055118
 30
0.0
 10
10.7242874015748
 20
7.39455905511811
 30
0.0
 10
10.77068110236221
 20
7.34009842519685
 30
0.0
 10
10.8436811023622
 20
7.273610236220472
 30
0.0
 10
10.8965905511811
 20
7.22542125984252
 30
0.0
 10
11.07644488188976
 20
7.159696850393701
 30
0.0
 10
10.78041732283465
 20
7.107228346456693
 30
0.0
 10
10.71617716535433
 20
7.095838582677166
 30
0.0
 10
10.63128346456693
 20
7.076905511811024
 30
0.0
 10
10.57066929133858
 20
7.072330708661418
 30
0.0
 10
10.46985433070866
 20
7.064724409448819
 30
0.0
 10
10.1813937007874
 20
7.072354330708661
 30
0.0
 10
10.1144094488189
 20
7.106409448818898
 30
0.0
  0
SPLINE
  5
6C
330
1F
100
AcDbEntity
  8
Layer 1
370
     9
100
AcDbSpline
210
0.0
220
0.0
230
1.0
 70
    11
 71
     3
 72
    35
 73
    31
 74
     0
 42
0.0000000001
 43
0.0000000001
 40
0.0
 40
0.0
 40
0.0
 40
0.0
 40
0.1
 40
0.1
 40
0.1
 40
0.2
 40
0.2
 40
0.2
 40
0.3
 40
0.3
 40
0.3
 40
0.4
 40
0.4
 40
0.4
 40
0.5
 40
0.5
 40
0.5
 40
0.6000000000000001
 40
0.6000000000000001
 40
0.6000000000000001
 40
0.7000000000000001
 40
0.7000000000000001
 40
0.7000000000000001
 40
0.8
 40
0.8
 40
0.8
 40
0.9
 40
0.9
 40
0.9
 40
1.0
 40
1.0
 40
1.0
 40
1.0
 10
10.94003937007874
 20
7.570011811023622
 30
0.0
 10
10.94003937007874
 20
7.570011811023622
 30
0.0
 10
10.75965354330709
 20
7.780799212598425
 30
0.0
 10
10.75965354330709
 20
7.780799212598425
 30
0.0
 10
10.74304724409449
 20
7.799484251968504
 30
0.0
 10
10.65626771653543
 20
7.856830708661417
 30
0.0
 10
10.69380708661417
 20
7.89148031496063
 30
0.0
 10
10.70605118110236
 20
7.902783464566929
 30
0.0
 10
10.81749606299213
 20
7.873409448818897
 30
0.0
 10
10.85603937007874
 20
7.868448818897638
 30
0.0
 10
10.91496456692913
 20
7.860866141732283
 30
0.0
 10
10.97603937007874
 20
7.853141732283465
 30
0.0
 10
11.03899606299213
 20
7.851106299212598
 30
0.0
 10
11.24171653543307
 20
7.844543307086614
 30
0.0
 10
11.21714960629921
 20
7.884968503937007
 30
0.0
 10
11.34176377952756
 20
7.761988188976378
 30
0.0
 10
11.39657086614173
 20
7.70790157480315
 30
0.0
 10
11.47211417322835
 20
7.620043307086614
 30
0.0
 10
11.51046062992126
 20
7.539224409448819
 30
0.0
 10
11.53165748031496
 20
7.494555118110236
 30
0.0
 10
11.62255118110236
 20
7.295216535433071
 30
0.0
 10
11.5869094488189
 20
7.255791338582677
 30
0.0
 10
11.54508267716535
 20
7.20951968503937
 30
0.0
 10
11.33263385826772
 20
7.307893700787401
 30
0.0
 10
11.28923622047244
 20
7.328094488188976
 30
0.0
 10
11.28923622047244
 20
7.328094488188976
 30
0.0
 10
10.98801181102362
 20
7.522622047244094
 30
0.0
 10
10.98801181102362
 20
7.522622047244094
 30
0.0
 10
10.97698031496063
 20
7.531933070866142
 30
0.0
 10
10.9548031496063
 20
7.55601968503937
 30
0.0
 10
10.94003937007874
 20
7.570011811023622
 30
0.0
  0
SPLINE
  5
6D
330
1F
100
AcDbEntity
  8
Layer 1
370
     9
100
AcDbSpline
210
0.0
220
0.0
230
1.0
 70
    11
 71
     3
 72
    32
 73
    28
 74
     0
 42
0.0000000001
 43
0.0000000001
 40
0.0
 40
0.0
 40
0.0
 40
0.0
 40
0.1111111111111111
 40
0.1111111111111111
 40
0.1111111111111111
 40
0.2222222222222222
 40
0.2222222222222222
 40
0.2222222222222222
 40
0.3333333333333333
 40
0.3333333333333333
 40
0.3333333333333333
 40
0.4444444444444444
 40
0.4444444444444444
 40
0.4444444444444444
 40
0.5555555555555556
 40
0.5555555555555556
 40
0.5555555555555556
 40
0.6666666666666666
 40
0.6666666666666666
 40
0.6666666666666666
 40
0.7777777777777777
 40
0.7777777777777777
 40
0.7777777777777777
 40
0.8888888888888888
 40
0.8888888888888888
 40
0.8888888888888888
 40
1.0
 40
1.0
 40
1.0
 40
1.0
 10
13.33798818897638
 20
8.041326771653543
 30
0.0
 10
13.39566929133858
 20
8.04138188976378
 30
0.0
 10
13.51777559055118
 20
8.05551968503937
 30
0.0
 10
13.55176771653543
 20
8.045267716535433
 30
0.0
 10
13.56762598425197
 20
7.987421259842519
 30
0.0
 10
13.52427952755906
 20
7.952212598425197
 30
0.0
 10
13.47083464566929
 20
7.851279527559055
 30
0.0
 10
13.43463385826772
 20
7.782909448818898
 30
0.0
 10
13.41753149606299
 20
7.737657480314961
 30
0.0
 10
13.36914173228346
 20
7.666870078740158
 30
0.0
 10
13.30599606299213
 20
7.574488188976378
 30
0.0
 10
13.24773622047244
 20
7.502263779527559
 30
0.0
 10
13.17129133858268
 20
7.435586614173229
 30
0.0
 10
12.89420078740157
 20
7.193917322834646
 30
0.0
 10
12.58129921259843
 20
7.189732283464567
 30
0.0
 10
12.16474803149606
 20
7.181043307086614
 30
0.0
 10
12.04635433070866
 20
7.178574803149607
 30
0.0
 10
12.01516535433071
 20
7.153279527559055
 30
0.0
 10
11.92836614173228
 20
7.213787401574804
 30
0.0
 10
11.8713031496063
 20
7.253562992125985
 30
0.0
 10
11.85449606299213
 20
7.33005905511811
 30
0.0
 10
11.85824015748032
 20
7.421787401574803
 30
0.0
 10
11.86545275590551
 20
7.59859842519685
 30
0.0
 10
11.96175984251968
 20
7.720649606299212
 30
0.0
 10
12.04055511811024
 20
7.803460629921259
 30
0.0
 10
12.33925590551181
 20
8.117377952755906
 30
0.0
 10
12.93296850393701
 20
8.040929133858267
 30
0.0
 10
13.33798818897638
 20
8.041326771653543
 30
0.0
  0
SPLINE
  5
6E
330
1F
100
AcDbEntity
  8
Layer 1
370
     9
100
AcDbSpline
210
0.0
220
0.0
230
1.0
 70
    11
 71
     3
 72
    35
 73
    31
 74
     0
 42
0.0000000001
 43
0.0000000001
 40
0.0
 40
0.0
 40
0.0
 40
0.0
 40
0.1
 40
0.1
 40
0.1
 40
0.2
 40
0.2
 40
0.2
 40
0.3
 40
0.3
 40
0.3
 40
0.4
 40
0.4
 40
0.4
 40
0.5
 40
0.5
 40
0.5
 40
0.6000000000000001
 40
0.6000000000000001
 40
0.6000000000000001
 40
0.7000000000000001
 40
0.7000000000000001
 40
0.7000000000000001
 40
0.8
 40
0.8
 40
0.8
 40
0.9
 40
0.9
 40
0.9
 40
1.0
 40
1.0
 40
1.0
 40
1.0
 10
12.43374015748032
 20
8.263271653543308
 30
0.0
 10
12.43012204724409
 20
8.342740157480314
 30
0.0
 10
12.54744094488189
 20
8.37170472440945
 30
0.0
 10
12.61845669291339
 20
8.407755905511811
 30
0.0
 10
12.78616929133858
 20
8.492893700787402
 30
0.0
 10
13.03737007874016
 20
8.579996062992127
 30
0.0
 10
13.22098031496063
 20
8.625933070866141
 30
0.0
 10
13.3814094488189
 20
8.666070866141732
 30
0.0
 10
13.49622834645669
 20
8.66588188976378
 30
0.0
 10
13.66023622047244
 20
8.681933070866142
 30
0.0
 10
13.85036220472441
 20
8.700543307086614
 30
0.0
 10
14.23018897637795
 20
8.665259842519685
 30
0.0
 10
14.43129133858268
 20
8.721897637795276
 30
0.0
 10
14.47816929133858
 20
8.73509842519685
 30
0.0
 10
14.50974803149606
 20
8.758854330708662
 30
0.0
 10
14.55407086614173
 20
8.75124409448819
 30
0.0
 10
14.56361023622047
 20
8.696185039370079
 30
0.0
 10
14.54465354330709
 20
8.696996062992126
 30
0.0
 10
14.51355511811024
 20
8.668822834645669
 30
0.0
 10
14.48301181102362
 20
8.641157480314961
 30
0.0
 10
14.41922834645669
 20
8.561555118110237
 30
0.0
 10
14.38074409448819
 20
8.534
 30
0.0
 10
14.25466141732283
 20
8.44371653543307
 30
0.0
 10
14.09423622047244
 20
8.370271653543307
 30
0.0
 10
13.9317874015748
 20
8.343346456692913
 30
0.0
 10
13.33679921259843
 20
8.244736220472442
 30
0.0
 10
13.05820866141732
 20
8.339240157480315
 30
0.0
 10
12.65765748031496
 20
8.29394094488189
 30
0.0
 10
12.56888188976378
 20
8.283897637795276
 30
0.0
 10
12.48896850393701
 20
8.259244094488189
 30
0.0
 10
12.43374015748032
 20
8.263271653543308
 30
0.0
  0
SPLINE
  5
6F
330
1F
100
AcDbEntity
  8
Layer 1
370
     9
100
AcDbSpline
210
0.0
220
0.0
230
1.0
 70
    11
 71
     3
 72
    35
 73
    31
 74
     0
 42
0.0000000001
 43
0.0000000001
 40
0.0
 40
0.0
 40
0.0
 40
0.0
 40
0.1
 40
0.1
 40
0.1
 40
0.2
 40
0.2
 40
0.2
 40
0.3
 40
0.3
 40
0.3
 40
0.4
 40
0.4
 40
0.4
 40
0.5
 40
0.5
 40
0.5
 40
0.6000000000000001
 40
0.6000000000000001
 40
0.6000000000000001
 40
0.7000000000000001
 40
0.7000000000000001
 40
0.7000000000000001
 40
0.8
 40
0.8
 40
0.8
 40
0.9
 40
0.9
 40
0.9
 40
1.0
 40
1.0
 40
1.0
 40
1.0
 10
11.73111023622047
 20
7.761492125984252
 30
0.0
 10
11.72024803149606
 20
7.705913385826771
 30
0.0
 10
11.72943700787402
 20
7.692948818897638
 30
0.0
 10
11.70712598425197
 20
7.650917322834646
 30
0.0
 10
11.70712598425197
 20
7.650917322834646
 30
0.0
 10
11.6575905511811
 20
7.650724409448819
 30
0.0
 10
11.6575905511811
 20
7.650724409448819
 30
0.0
 10
11.63644881889764
 20
7.680291338582677
 30
0.0
 10
11.6291968503937
 20
7.715724409448819
 30
0.0
 10
11.60286220472441
 20
7.756236220472441
 30
0.0
 10
11.30236220472441
 20
8.218488188976378
 30
0.0
 10
10.87223228346457
 20
8.365570866141733
 30
0.0
 10
10.43163385826772
 20
8.663984251968504
 30
0.0
 10
10.37180708661417
 20
8.704507874015748
 30
0.0
 10
10.27431102362205
 20
8.740161417322835
 30
0.0
 10
10.26242913385827
 20
8.8185
 30
0.0
 10
10.33884251968504
 20
8.813645669291338
 30
0.0
 10
10.40824803149606
 20
8.758653543307087
 30
0.0
 10
10.48296062992126
 20
8.734346456692913
 30
0.0
 10
10.72170472440945
 20
8.656685039370078
 30
0.0
 10
10.97677559055118
 20
8.642090551181102
 30
0.0
 10
11.23008267716535
 20
8.624240157480315
 30
0.0
 10
11.58670078740158
 20
8.59911811023622
 30
0.0
 10
11.74997637795276
 20
8.606204724409448
 30
0.0
 10
12.02994488188976
 20
8.412311023622047
 30
0.0
 10
12.06575196850394
 20
8.387515748031497
 30
0.0
 10
12.09532677165354
 20
8.389188976377953
 30
0.0
 10
12.10164173228346
 20
8.336948818897637
 30
0.0
 10
12.09865748031496
 20
8.313771653543307
 30
0.0
 10
11.78976377952756
 20
8.061649606299213
 30
0.0
 10
11.73111023622047
 20
7.761492125984252
 30
0.0
  0
SPLINE
  5
70
330
1F
100
AcDbEntity
  8
Layer 1
370
     9
100
AcDbSpline
210
0.0
220
0.0
230
1.0
 70
    11
 71
     3
 72
    26
 73
    22
 74
     0
 42
0.0000000001
 43
0.0000000001
 40
0.0
 40
0.0
 40
0.0
 40
0.0
 40
0.1428571428571428
 40
0.1428571428571428
 40
0.1428571428571428
 40
0.2857142857142857
 40
0.2857142857142857
 40
0.2857142857142857
 40
0.4285714285714285
 40
0.4285714285714285
 40
0.4285714285714285
 40
0.5714285714285714
 40
0.5714285714285714
 40
0.5714285714285714
 40
0.7142857142857142
 40
0.7142857142857142
 40
0.7142857142857142
 40
0.8571428571428571
 40
0.8571428571428571
 40
0.8571428571428571
 40
1.0
 40
1.0
 40
1.0
 40
1.0
 10
13.16526377952756
 20
8.86985433070866
 30
0.0
 10
13.1614094488189
 20
8.9288031496063
 30
0.0
 10
13.19035826771653
 20
8.945338582677165
 30
0.0
 10
13.22259842519685
 20
8.967295275590551
 30
0.0
 10
13.50817716535433
 20
9.161783464566929
 30
0.0
 10
13.61515354330709
 20
9.167909448818898
 30
0.0
 10
13.91541732283465
 20
9.31361811023622
 30
0.0
 10
14.11179133858268
 20
9.408909448818898
 30
0.0
 10
14.1245
 20
9.454334645669292
 30
0.0
 10
14.26077952755906
 20
9.559720472440945
 30
0.0
 10
14.31900787401575
 20
9.604751968503937
 30
0.0
 10
14.34307480314961
 20
9.687992125984252
 30
0.0
 10
14.44388582677165
 20
9.633661417322834
 30
0.0
 10
14.56594094488189
 20
9.567885826771654
 30
0.0
 10
14.71284645669291
 20
9.504775590551182
 30
0.0
 10
14.7548779527559
 20
9.34244094488189
 30
0.0
 10
14.89177165354331
 20
8.813724409448819
 30
0.0
 10
13.72888188976378
 20
8.951811023622048
 30
0.0
 10
13.41945275590551
 20
8.911082677165354
 30
0.0
 10
13.36040551181102
 20
8.903311023622047
 30
0.0
 10
13.20712992125984
 20
8.864677165354331
 30
0.0
 10
13.16526377952756
 20
8.86985433070866
 30
0.0
  0
SPLINE
  5
71
330
1F
100
AcDbEntity
  8
Layer 1
370
     9
100
AcDbSpline
210
0.0
220
0.0
230
1.0
 70
    11
 71
     3
 72
    35
 73
    31
 74
     0
 42
0.0000000001
 43
0.0000000001
 40
0.0
 40
0.0
 40
0.0
 40
0.0
 40
0.1
 40
0.1
 40
0.1
 40
0.2
 40
0.2
 40
0.2
 40
0.3
 40
0.3
 40
0.3
 40
0.4
 40
0.4
 40
0.4
 40
0.5
 40
0.5
 40
0.5
 40
0.6000000000000001
 40
0.6000000000000001
 40
0.6000000000000001
 40
0.7000000000000001
 40
0.7000000000000001
 40
0.7000000000000001
 40
0.8
 40
0.8
 40
0.8
 40
0.9
 40
0.9
 40
0.9
 40
1.0
 40
1.0
 40
1.0
 40
1.0
 10
11.75762204724409
 20
8.805874015748032
 30
0.0
 10
11.74924803149606
 20
8.87148031496063
 30
0.0
 10
11.77564566929134
 20
8.862468503937007
 30
0.0
 10
11.85885039370079
 20
8.94783464566929
 30
0.0
 10
12.10625590551181
 20
9.201685039370078
 30
0.0
 10
12.42661023622047
 20
9.211913385826772
 30
0.0
 10
12.78497637795276
 20
9.23263779527559
 30
0.0
 10
12.78497637795276
 20
9.23263779527559
 30
0.0
 10
13.21993307086614
 20
9.267114173228347
 30
0.0
 10
13.21993307086614
 20
9.267114173228347
 30
0.0
 10
13.23751181102362
 20
9.204318897637796
 30
0.0
 10
13.16583858267717
 20
9.177326771653544
 30
0.0
 10
13.12400787401575
 20
9.142047244094488
 30
0.0
 10
13.0835905511811
 20
9.107956692913385
 30
0.0
 10
13.04676771653543
 20
9.067110236220472
 30
0.0
 10
13.00905511811024
 20
9.02813779527559
 30
0.0
 10
12.96938188976378
 20
8.987149606299212
 30
0.0
 10
12.94257086614173
 20
8.947055118110237
 30
0.0
 10
12.91096062992126
 20
8.897188976377953
 30
0.0
 10
12.79122440944882
 20
8.708275590551182
 30
0.0
 10
12.79611417322835
 20
8.78165748031496
 30
0.0
 10
12.64803937007874
 20
8.70238188976378
 30
0.0
 10
12.5532125984252
 20
8.651618110236221
 30
0.0
 10
12.4442125984252
 20
8.600181102362205
 30
0.0
 10
12.35674015748032
 20
8.536102362204725
 30
0.0
 10
12.22284251968504
 20
8.438015748031496
 30
0.0
 10
12.23271653543307
 20
8.420929133858268
 30
0.0
 10
12.17294094488189
 20
8.525799212598425
 30
0.0
 10
12.04677165354331
 20
8.74713779527559
 30
0.0
 10
11.80708661417323
 20
8.777330708661417
 30
0.0
 10
11.75762204724409
 20
8.805874015748032
 30
0.0
  0
SPLINE
  5
72
330
1F
100
AcDbEntity
  8
Layer 1
370
     9
100
AcDbSpline
210
0.0
220
0.0
230
1.0
 70
    11
 71
     3
 72
    35
 73
    31
 74
     0
 42
0.0000000001
 43
0.0000000001
 40
0.0
 40
0.0
 40
0.0
 40
0.0
 40
0.1
 40
0.1
 40
0.1
 40
0.2
 40
0.2
 40
0.2
 40
0.3
 40
0.3
 40
0.3
 40
0.4
 40
0.4
 40
0.4
 40
0.5
 40
0.5
 40
0.5
 40
0.6000000000000001
 40
0.6000000000000001
 40
0.6000000000000001
 40
0.7000000000000001
 40
0.7000000000000001
 40
0.7000000000000001
 40
0.8
 40
0.8
 40
0.8
 40
0.9
 40
0.9
 40
0.9
 40
1.0
 40
1.0
 40
1.0
 40
1.0
 10
10.34240157480315
 20
9.31807874015748
 30
0.0
 10
10.69347244094488
 20
9.07401968503937
 30
0.0
 10
11.03058267716535
 20
9.09518503937008
 30
0.0
 10
11.43038976377953
 20
9.103003937007873
 30
0.0
 10
11.48163779527559
 20
9.104003937007874
 30
0.0
 10
11.52347244094488
 20
9.102602362204724
 30
0.0
 10
11.57379133858268
 20
9.10201968503937
 30
0.0
 10
11.60041732283465
 20
9.101712598425197
 30
0.0
 10
11.61484645669291
 20
9.10633464566929
 30
0.0
 10
11.63371653543307
 20
9.106972440944881
 30
0.0
 10
11.75259842519685
 20
9.111023622047243
 30
0.0
 10
11.63636220472441
 20
8.993023622047245
 30
0.0
 10
11.6318031496063
 20
8.983677165354331
 30
0.0
 10
11.60796062992126
 20
8.934783464566928
 30
0.0
 10
11.60148031496063
 20
8.911145669291338
 30
0.0
 10
11.57346062992126
 20
8.872173228346456
 30
0.0
 10
11.50923228346457
 20
8.862925196850394
 30
0.0
 10
11.42936614173228
 20
8.88568503937008
 30
0.0
 10
11.35634645669291
 20
8.892393700787402
 30
0.0
 10
11.1223188976378
 20
8.913909448818897
 30
0.0
 10
10.94844881889764
 20
8.906964566929133
 30
0.0
 10
10.70616929133858
 20
8.935291338582678
 30
0.0
 10
10.55806692913386
 20
8.952606299212599
 30
0.0
 10
10.29441338582677
 20
9.014838582677166
 30
0.0
 10
10.23776771653543
 20
9.166208661417324
 30
0.0
 10
10.21656299212598
 20
9.222877952755905
 30
0.0
 10
10.21498818897638
 20
9.303
 30
0.0
 10
10.23847637795276
 20
9.356925196850394
 30
0.0
 10
10.29827952755906
 20
9.36779527559055
 30
0.0
 10
10.31207480314961
 20
9.339161417322835
 30
0.0
 10
10.34240157480315
 20
9.31807874015748
 30
0.0
  0
SPLINE
  5
73
330
1F
100
AcDbEntity
  8
Layer 1
370
     9
100
AcDbSpline
210
0.0
220
0.0
230
1.0
 70
    11
 71
     3
 72
    35
 73
    31
 74
     0
 42
0.0000000001
 43
0.0000000001
 40
0.0
 40
0.0
 40
0.0
 40
0.0
 40
0.1
 40
0.1
 40
0.1
 40
0.2
 40
0.2
 40
0.2
 40
0.3
 40
0.3
 40
0.3
 40
0.4
 40
0.4
 40
0.4
 40
0.5
 40
0.5
 40
0.5
 40
0.6000000000000001
 40
0.6000000000000001
 40
0.6000000000000001
 40
0.7000000000000001
 40
0.7000000000000001
 40
0.7000000000000001
 40
0.8
 40
0.8
 40
0.8
 40
0.9
 40
0.9
 40
0.9
 40
1.0
 40
1.0
 40
1.0
 40
1.0
 10
10.73520866141732
 20
8.145787401574804
 30
0.0
 10
10.6596811023622
 20
8.13521653543307
 30
0.0
 10
10.28438582677165
 20
8.245133858267717
 30
0.0
 10
10.213
 20
8.272232283464566
 30
0.0
 10
10.01885039370079
 20
8.345933070866142
 30
0.0
 10
9.83934251968504
 20
8.43546062992126
 30
0.0
 10
9.68888188976378
 20
8.55998031496063
 30
0.0
 10
9.602641732283464
 20
8.631350393700787
 30
0.0
 10
9.519759842519685
 20
8.72070472440945
 30
0.0
 10
9.46961811023622
 20
8.827314960629922
 30
0.0
 10
9.392251968503937
 20
8.991811023622047
 30
0.0
 10
9.390047244094488
 20
9.21808661417323
 30
0.0
 10
9.515102362204724
 20
9.32698031496063
 30
0.0
 10
9.535881889763779
 20
9.345074803149606
 30
0.0
 10
9.706307086614173
 20
9.48253937007874
 30
0.0
 10
9.698015748031496
 20
9.374110236220472
 30
0.0
 10
9.678125984251968
 20
9.113850393700787
 30
0.0
 10
9.846279527559055
 20
8.88572440944882
 30
0.0
 10
10.00522834645669
 20
8.714236220472442
 30
0.0
 10
10.03540551181102
 20
8.68167716535433
 30
0.0
 10
10.06247637795276
 20
8.664515748031496
 30
0.0
 10
10.09118503937008
 20
8.63813779527559
 30
0.0
 10
10.09118503937008
 20
8.63813779527559
 30
0.0
 10
10.22477165354331
 20
8.523826771653543
 30
0.0
 10
10.22477165354331
 20
8.523826771653543
 30
0.0
 10
10.32716929133858
 20
8.438688976377954
 30
0.0
 10
10.53411417322835
 20
8.278562992125984
 30
0.0
 10
10.65183070866142
 20
8.226523622047244
 30
0.0
 10
10.71324803149606
 20
8.199374015748031
 30
0.0
 10
10.73199606299213
 20
8.185291338582678
 30
0.0
 10
10.73520866141732
 20
8.145787401574804
 30
0.0
  0
SPLINE
  5
74
330
1F
100
AcDbEntity
  8
Layer 1
370
     9
100
AcDbSpline
210
0.0
220
0.0
230
1.0
 70
    11
 71
     3
 72
    26
 73
    22
 74
     0
 42
0.0000000001
 43
0.0000000001
 40
0.0
 40
0.0
 40
0.0
 40
0.0
 40
0.1428571428571428
 40
0.1428571428571428
 40
0.1428571428571428
 40
0.2857142857142857
 40
0.2857142857142857
 40
0.2857142857142857
 40
0.4285714285714285
 40
0.4285714285714285
 40
0.4285714285714285
 40
0.5714285714285714
 40
0.5714285714285714
 40
0.5714285714285714
 40
0.7142857142857142
 40
0.7142857142857142
 40
0.7142857142857142
 40
0.8571428571428571
 40
0.8571428571428571
 40
0.8571428571428571
 40
1.0
 40
1.0
 40
1.0
 40
1.0
 10
10.0493937007874
 20
9.039492125984252
 30
0.0
 10
9.994055118110236
 20
9.041299212598425
 30
0.0
 10
9.99820472440945
 20
9.052996062992126
 30
0.0
 10
9.973968503937009
 20
9.093405511811024
 30
0.0
 10
9.875397637795276
 20
9.257771653543307
 30
0.0
 10
9.839551181102362
 20
9.358909448818897
 30
0.0
 10
9.900370078740158
 20
9.524692913385827
 30
0.0
 10
9.911570866141732
 20
9.555220472440945
 30
0.0
 10
9.922421259842519
 20
9.561885826771654
 30
0.0
 10
9.939444881889763
 20
9.598968503937009
 30
0.0
 10
9.955192913385826
 20
9.633251968503936
 30
0.0
 10
9.96525590551181
 20
9.64665748031496
 30
0.0
 10
10.00923228346457
 20
9.643043307086614
 30
0.0
 10
10.02875590551181
 20
9.619377952755906
 30
0.0
 10
10.05687401574803
 20
9.554496062992126
 30
0.0
 10
10.10074803149606
 20
9.505602362204725
 30
0.0
 10
10.16283464566929
 20
9.436413385826771
 30
0.0
 10
10.11535433070866
 20
9.419102362204724
 30
0.0
 10
10.07594881889764
 20
9.376330708661417
 30
0.0
 10
9.944956692913387
 20
9.234165354330708
 30
0.0
 10
10.05281496062992
 20
9.129661417322835
 30
0.0
 10
10.0493937007874
 20
9.039492125984252
 30
0.0
  0
SPLINE
  5
75
330
1F
100
AcDbEntity
  8
Layer 1
370
     9
100
AcDbSpline
210
0.0
220
0.0
230
1.0
 70
    11
 71
     3
 72
    32
 73
    28
 74
     0
 42
0.0000000001
 43
0.0000000001
 40
0.0
 40
0.0
 40
0.0
 40
0.0
 40
0.1111111111111111
 40
0.1111111111111111
 40
0.1111111111111111
 40
0.2222222222222222
 40
0.2222222222222222
 40
0.2222222222222222
 40
0.3333333333333333
 40
0.3333333333333333
 40
0.3333333333333333
 40
0.4444444444444444
 40
0.4444444444444444
 40
0.4444444444444444
 40
0.5555555555555556
 40
0.5555555555555556
 40
0.5555555555555556
 40
0.6666666666666666
 40
0.6666666666666666
 40
0.6666666666666666
 40
0.7777777777777777
 40
0.7777777777777777
 40
0.7777777777777777
 40
0.8888888888888888
 40
0.8888888888888888
 40
0.8888888888888888
 40
1.0
 40
1.0
 40
1.0
 40
1.0
 10
11.1686968503937
 20
9.322342519685039
 30
0.0
 10
11.18457480314961
 20
9.38628346456693
 30
0.0
 10
11.21791732283465
 20
9.376566929133858
 30
0.0
 10
11.32414960629921
 20
9.387889763779528
 30
0.0
 10
11.51810236220472
 20
9.408562992125985
 30
0.0
 10
11.84942913385827
 20
9.550208661417322
 30
0.0
 10
12.18350787401575
 20
9.547279527559056
 30
0.0
 10
12.27032283464567
 20
9.54651968503937
 30
0.0
 10
12.49169291338583
 20
9.533043307086615
 30
0.0
 10
12.54692125984252
 20
9.50201968503937
 30
0.0
 10
12.54692125984252
 20
9.50201968503937
 30
0.0
 10
12.54479527559055
 20
9.462192913385827
 30
0.0
 10
12.54479527559055
 20
9.462192913385827
 30
0.0
 10
12.50403937007874
 20
9.433031496062991
 30
0.0
 10
12.42727952755905
 20
9.435795275590552
 30
0.0
 10
12.3650905511811
 20
9.424248031496063
 30
0.0
 10
12.30479133858268
 20
9.413055118110236
 30
0.0
 10
12.25405118110236
 20
9.39598031496063
 30
0.0
 10
12.19932677165354
 20
9.379370078740157
 30
0.0
 10
12.07536614173228
 20
9.341751968503937
 30
0.0
 10
12.0042874015748
 20
9.31782283464567
 30
0.0
 10
11.90361417322835
 20
9.256102362204725
 30
0.0
 10
11.82656299212598
 20
9.208858267716536
 30
0.0
 10
11.81164960629921
 20
9.233464566929134
 30
0.0
 10
11.72502755905512
 20
9.252055118110237
 30
0.0
 10
11.53751181102362
 20
9.292307086614173
 30
0.0
 10
11.21248031496063
 20
9.30434251968504
 30
0.0
 10
11.1686968503937
 20
9.322342519685039
 30
0.0
  0
SPLINE
  5
76
330
1F
100
AcDbEntity
  8
Layer 1
370
     9
100
AcDbSpline
210
0.0
220
0.0
230
1.0
 70
    11
 71
     3
 72
    23
 73
    19
 74
     0
 42
0.0000000001
 43
0.0000000001
 40
0.0
 40
0.0
 40
0.0
 40
0.0
 40
0.1666666666666667
 40
0.1666666666666667
 40
0.1666666666666667
 40
0.3333333333333333
 40
0.3333333333333333
 40
0.3333333333333333
 40
0.5
 40
0.5
 40
0.5
 40
0.6666666666666666
 40
0.6666666666666666
 40
0.6666666666666666
 40
0.8333333333333333
 40
0.8333333333333333
 40
0.8333333333333333
 40
1.0
 40
1.0
 40
1.0
 40
1.0
 10
11.10721653543307
 20
9.614641732283465
 30
0.0
 10
11.08842913385827
 20
9.553224409448818
 30
0.0
 10
11.03916141732283
 20
9.567562992125984
 30
0.0
 10
10.9681062992126
 20
9.552200787401574
 30
0.0
 10
10.91602755905512
 20
9.540937007874016
 30
0.0
 10
10.82863779527559
 20
9.539413385826771
 30
0.0
 10
10.781
 20
9.556779527559055
 30
0.0
 10
10.59968503937008
 20
9.622874015748032
 30
0.0
 10
10.63706299212598
 20
9.6766968503937
 30
0.0
 10
10.64312992125984
 20
9.796464566929133
 30
0.0
 10
10.65022440944882
 20
9.936488188976378
 30
0.0
 10
10.69335826771654
 20
9.853618110236221
 30
0.0
 10
10.85413385826772
 20
9.7536968503937
 30
0.0
 10
10.85413385826772
 20
9.7536968503937
 30
0.0
 10
10.98303543307087
 20
9.682433070866141
 30
0.0
 10
10.98303543307087
 20
9.682433070866141
 30
0.0
 10
11.02258267716535
 20
9.66171653543307
 30
0.0
 10
11.0799094488189
 20
9.646381889763779
 30
0.0
 10
11.10721653543307
 20
9.614641732283465
 30
0.0
  0
SPLINE
  5
77
330
1F
100
AcDbEntity
  8
Layer 1
370
     9
100
AcDbSpline
210
0.0
220
0.0
230
1.0
 70
    11
 71
     3
 72
    26
 73
    22
 74
     0
 42
0.0000000001
 43
0.0000000001
 40
0.0
 40
0.0
 40
0.0
 40
0.0
 40
0.1428571428571428
 40
0.1428571428571428
 40
0.1428571428571428
 40
0.2857142857142857
 40
0.2857142857142857
 40
0.2857142857142857
 40
0.4285714285714285
 40
0.4285714285714285
 40
0.4285714285714285
 40
0.5714285714285714
 40
0.5714285714285714
 40
0.5714285714285714
 40
0.7142857142857142
 40
0.7142857142857142
 40
0.7142857142857142
 40
0.8571428571428571
 40
0.8571428571428571
 40
0.8571428571428571
 40
1.0
 40
1.0
 40
1.0
 40
1.0
 10
12.90011417322835
 20
9.509755905511811
 30
0.0
 10
12.92137401574803
 20
9.550433070866141
 30
0.0
 10
13.06798031496063
 20
9.56365748031496
 30
0.0
 10
13.12102755905512
 20
9.57442125984252
 30
0.0
 10
13.19160236220472
 20
9.588740157480315
 30
0.0
 10
13.27479527559055
 20
9.607523622047244
 30
0.0
 10
13.34372047244094
 20
9.628858267716536
 30
0.0
 10
13.40612204724409
 20
9.648177165354332
 30
0.0
 10
13.49551181102362
 20
9.675228346456693
 30
0.0
 10
13.55405905511811
 20
9.703350393700788
 30
0.0
 10
13.68977165354331
 20
9.76853937007874
 30
0.0
 10
13.64785039370079
 20
9.810169291338582
 30
0.0
 10
13.74011023622047
 20
9.796342519685039
 30
0.0
 10
13.80674409448819
 20
9.661350393700788
 30
0.0
 10
13.76612204724409
 20
9.658318897637795
 30
0.0
 10
13.69552362204724
 20
9.600708661417324
 30
0.0
 10
13.57898818897638
 20
9.505606299212598
 30
0.0
 10
13.32828346456693
 20
9.496614173228346
 30
0.0
 10
13.17567322834646
 20
9.492669291338583
 30
0.0
 10
13.09236614173228
 20
9.490515748031497
 30
0.0
 10
12.92185433070866
 20
9.448511811023621
 30
0.0
 10
12.90011417322835
 20
9.509755905511811
 30
0.0
  0
SPLINE
  5
78
330
1F
100
AcDbEntity
  8
Layer 1
370
     9
100
AcDbSpline
210
0.0
220
0.0
230
1.0
 70
    11
 71
     3
 72
    14
 73
    10
 74
     0
 42
0.0000000001
 43
0.0000000001
 40
0.0
 40
0.0
 40
0.0
 40
0.0
 40
0.3333333333333333
 40
0.3333333333333333
 40
0.3333333333333333
 40
0.6666666666666666
 40
0.6666666666666666
 40
0.6666666666666666
 40
1.0
 40
1.0
 40
1.0
 40
1.0
 10
12.17468897637795
 20
9.767102362204724
 30
0.0
 10
12.13786220472441
 20
9.780783464566928
 30
0.0
 10
12.0817874015748
 20
9.834681102362206
 30
0.0
 10
12.0886968503937
 20
9.890937007874015
 30
0.0
 10
12.11715354330709
 20
9.89348031496063
 30
0.0
 10
12.26908661417323
 20
9.866385826771653
 30
0.0
 10
12.28879133858268
 20
9.85301968503937
 30
0.0
 10
12.30377952755905
 20
9.77507874015748
 30
0.0
 10
12.24446850393701
 20
9.741181102362205
 30
0.0
 10
12.17468897637795
 20
9.767102362204724
 30
0.0
  0
SPLINE
  5
79
330
1F
100
AcDbEntity
  8
Layer 1
370
     9
100
AcDbSpline
210
0.0
220
0.0
230
1.0
 70
    11
 71
     3
 72
    23
 73
    19
 74
     0
 42
0.0000000001
 43
0.0000000001
 40
0.0
 40
0.0
 40
0.0
 40
0.0
 40
0.1666666666666667
 40
0.1666666666666667
 40
0.1666666666666667
 40
0.3333333333333333
 40
0.3333333333333333
 40
0.3333333333333333
 40
0.5
 40
0.5
 40
0.5
 40
0.6666666666666666
 40
0.6666666666666666
 40
0.6666666666666666
 40
0.8333333333333333
 40
0.8333333333333333
 40
0.8333333333333333
 40
1.0
 40
1.0
 40
1.0
 40
1.0
 10
13.27122047244094
 20
10.15932283464567
 30
0.0
 10
13.34442913385827
 20
10.16647637795276
 30
0.0
 10
13.63994488188976
 20
9.97892125984252
 30
0.0
 10
13.16651968503937
 20
9.785877952755905
 30
0.0
 10
13.05988582677165
 20
9.742397637795275
 30
0.0
 10
12.91745669291338
 20
9.710653543307087
 30
0.0
 10
12.84034645669291
 20
9.62590157480315
 30
0.0
 10
12.7466220472441
 20
9.522897637795275
 30
0.0
 10
12.78685826771654
 20
9.651318897637795
 30
0.0
 10
12.48988582677165
 20
9.703043307086615
 30
0.0
 10
12.4055905511811
 20
9.717728346456694
 30
0.0
 10
12.41848818897638
 20
9.766090551181103
 30
0.0
 10
12.48067716535433
 20
9.784688976377952
 30
0.0
 10
12.65216535433071
 20
9.83598031496063
 30
0.0
 10
12.80665354330709
 20
9.815645669291339
 30
0.0
 10
13.09101181102362
 20
9.956988188976378
 30
0.0
 10
13.26576771653543
 20
10.04385039370079
 30
0.0
 10
13.23316929133858
 20
10.09980708661417
 30
0.0
 10
13.27122047244094
 20
10.15932283464567
 30
0.0
  0
SPLINE
  5
7A
330
1F
100
AcDbEntity
  8
Layer 1
370
     9
100
AcDbSpline
210
0.0
220
0.0
230
1.0
 70
    11
 71
     3
 72
    29
 73
    25
 74
     0
 42
0.0000000001
 43
0.0000000001
 40
0.0
 40
0.0
 40
0.0
 40
0.0
 40
0.125
 40
0.125
 40
0.125
 40
0.25
 40
0.25
 40
0.25
 40
0.375
 40
0.375
 40
0.375
 40
0.5
 40
0.5
 40
0.5
 40
0.625
 40
0.625
 40
0.625
 40
0.75
 40
0.75
 40
0.75
 40
0.875
 40
0.875
 40
0.875
 40
1.0
 40
1.0
 40
1.0
 40
1.0
 10
10.30867716535433
 20
10.29732283464567
 30
0.0
 10
10.38595669291339
 20
10.34509842519685
 30
0.0
 10
10.3425905511811
 20
10.20382677165354
 30
0.0
 10
10.51546850393701
 20
10.03489763779528
 30
0.0
 10
10.54138976377953
 20
10.00956692913386
 30
0.0
 10
10.57172047244094
 20
9.98370472440945
 30
0.0
 10
10.53633464566929
 20
9.936795275590551
 30
0.0
 10
10.48175196850394
 20
9.864448818897637
 30
0.0
 10
10.45405511811024
 20
9.820082677165354
 30
0.0
 10
10.46841338582677
 20
9.692551181102361
 30
0.0
 10
10.47984645669291
 20
9.591027559055117
 30
0.0
 10
10.5589094488189
 20
9.467149606299213
 30
0.0
 10
10.45604330708662
 20
9.507574803149605
 30
0.0
 10
10.43275590551181
 20
9.516728346456693
 30
0.0
 10
10.3017125984252
 20
9.626287401574803
 30
0.0
 10
10.28087401574803
 20
9.647610236220473
 30
0.0
 10
10.23890157480315
 20
9.69055905511811
 30
0.0
 10
10.18466535433071
 20
9.767905511811023
 30
0.0
 10
10.1609842519685
 20
9.843
 30
0.0
 10
10.12125984251968
 20
9.968956692913386
 30
0.0
 10
10.16338188976378
 20
10.17170078740157
 30
0.0
 10
10.26893700787402
 20
10.26125196850394
 30
0.0
 10
10.27585039370079
 20
10.26711417322835
 30
0.0
 10
10.30802362204724
 20
10.29691732283464
 30
0.0
 10
10.30867716535433
 20
10.29732283464567
 30
0.0
  0
SPLINE
  5
7B
330
1F
100
AcDbEntity
  8
Layer 1
370
     9
100
AcDbSpline
210
0.0
220
0.0
230
1.0
 70
    11
 71
     3
 72
    23
 73
    19
 74
     0
 42
0.0000000001
 43
0.0000000001
 40
0.0
 40
0.0
 40
0.0
 40
0.0
 40
0.1666666666666667
 40
0.1666666666666667
 40
0.1666666666666667
 40
0.3333333333333333
 40
0.3333333333333333
 40
0.3333333333333333
 40
0.5
 40
0.5
 40
0.5
 40
0.6666666666666666
 40
0.6666666666666666
 40
0.6666666666666666
 40
0.8333333333333333
 40
0.8333333333333333
 40
0.8333333333333333
 40
1.0
 40
1.0
 40
1.0
 40
1.0
 10
11.5788188976378
 20
10.0769094488189
 30
0.0
 10
11.5707125984252
 20
10.07316141732283
 30
0.0
 10
11.58516929133858
 20
10.07171653543307
 30
0.0
 10
11.55345669291339
 20
10.07055511811024
 30
0.0
 10
11.53070866141732
 20
10.06972440944882
 30
0.0
 10
11.42121653543307
 20
10.14541732283465
 30
0.0
 10
11.37251968503937
 20
10.17716929133858
 30
0.0
 10
11.36346456692913
 20
10.18307480314961
 30
0.0
 10
11.28566929133858
 20
10.24157086614173
 30
0.0
 10
11.28083464566929
 20
10.24734645669291
 30
0.0
 10
11.2109842519685
 20
10.3308031496063
 30
0.0
 10
11.35132677165354
 20
10.34704724409449
 30
0.0
 10
11.44569291338583
 20
10.37351968503937
 30
0.0
 10
11.49375590551181
 20
10.38700393700787
 30
0.0
 10
11.51795669291339
 20
10.3930905511811
 30
0.0
 10
11.52325590551181
 20
10.33025590551181
 30
0.0
 10
11.54384251968504
 20
10.08607480314961
 30
0.0
 10
11.61301968503937
 20
10.15763385826772
 30
0.0
 10
11.5788188976378
 20
10.0769094488189
 30
0.0
  0
SPLINE
  5
7C
330
1F
100
AcDbEntity
  8
Layer 1
370
     9
100
AcDbSpline
210
0.0
220
0.0
230
1.0
 70
    11
 71
     3
 72
    44
 73
    40
 74
     0
 42
0.0000000001
 43
0.0000000001
 40
0.0
 40
0.0
 40
0.0
 40
0.0
 40
0.0769230769230769
 40
0.0769230769230769
 40
0.0769230769230769
 40
0.1538461538461539
 40
0.1538461538461539
 40
0.1538461538461539
 40
0.2307692307692308
 40
0.2307692307692308
 40
0.2307692307692308
 40
0.3076923076923077
 40
0.3076923076923077
 40
0.3076923076923077
 40
0.3846153846153846
 40
0.3846153846153846
 40
0.3846153846153846
 40
0.4615384615384616
 40
0.4615384615384616
 40
0.4615384615384616
 40
0.5384615384615385
 40
0.5384615384615385
 40
0.5384615384615385
 40
0.6153846153846154
 40
0.6153846153846154
 40
0.6153846153846154
 40
0.6923076923076923
 40
0.6923076923076923
 40
0.6923076923076923
 40
0.7692307692307693
 40
0.7692307692307693
 40
0.7692307692307693
 40
0.8461538461538463
 40
0.8461538461538463
 40
0.8461538461538463
 40
0.9230769230769231
 40
0.9230769230769231
 40
0.9230769230769231
 40
1.0
 40
1.0
 40
1.0
 40
1.0
 10
12.06824409448819
 20
10.08364173228346
 30
0.0
 10
12.01854724409449
 20
10.07785039370079
 30
0.0
 10
11.97492125984252
 20
10.12843307086614
 30
0.0
 10
11.95526377952756
 20
10.16852362204724
 30
0.0
 10
11.8753937007874
 20
10.33140157480315
 30
0.0
 10
12.22687401574803
 20
10.56965354330709
 30
0.0
 10
12.51055511811024
 20
10.30335826771654
 30
0.0
 10
12.59544881889764
 20
10.22366535433071
 30
0.0
 10
12.6038937007874
 20
10.14956299212598
 30
0.0
 10
12.58567716535433
 20
10.0126220472441
 30
0.0
 10
12.53874015748032
 20
9.994114173228347
 30
0.0
 10
12.50937795275591
 20
9.977905511811024
 30
0.0
 10
12.46549212598425
 20
9.952712598425197
 30
0.0
 10
12.46549212598425
 20
9.952712598425197
 30
0.0
 10
12.35557480314961
 20
9.886582677165354
 30
0.0
 10
12.35557480314961
 20
9.886582677165354
 30
0.0
 10
12.29012992125984
 20
9.904122047244094
 30
0.0
 10
12.32600787401575
 20
9.926248031496064
 30
0.0
 10
12.26611811023622
 20
9.96351968503937
 30
0.0
 10
12.23138976377953
 20
9.985133858267716
 30
0.0
 10
12.19319291338583
 20
9.999425196850394
 30
0.0
 10
12.16802755905512
 20
10.01708661417323
 30
0.0
 10
12.1666811023622
 20
10.09927165354331
 30
0.0
 10
12.28966535433071
 20
10.17670866141732
 30
0.0
 10
12.36088188976378
 20
10.06770866141732
 30
0.0
 10
12.38082677165354
 20
10.0371811023622
 30
0.0
 10
12.37272047244094
 20
10.03584645669291
 30
0.0
 10
12.3785905511811
 20
9.998311023622048
 30
0.0
 10
12.3785905511811
 20
9.998311023622048
 30
0.0
 10
12.38433858267716
 20
9.975968503937008
 30
0.0
 10
12.38433858267716
 20
9.975968503937008
 30
0.0
 10
12.45050787401575
 20
9.946712598425197
 30
0.0
 10
12.53975984251968
 20
10.18549212598425
 30
0.0
 10
12.35251968503937
 20
10.25966141732284
 30
0.0
 10
12.28967322834646
 20
10.28455511811024
 30
0.0
 10
12.19475984251969
 20
10.27463385826772
 30
0.0
 10
12.14775196850394
 20
10.24196456692913
 30
0.0
 10
12.05729133858268
 20
10.1790905511811
 30
0.0
 10
12.10751181102362
 20
10.16207874015748
 30
0.0
 10
12.06824409448819
 20
10.08364173228346
 30
0.0
  0
SPLINE
  5
7D
330
1F
100
AcDbEntity
  8
Layer 1
370
     9
100
AcDbSpline
210
0.0
220
0.0
230
1.0
 70
    11
 71
     3
 72
    26
 73
    22
 74
     0
 42
0.0000000001
 43
0.0000000001
 40
0.0
 40
0.0
 40
0.0
 40
0.0
 40
0.1428571428571428
 40
0.1428571428571428
 40
0.1428571428571428
 40
0.2857142857142857
 40
0.2857142857142857
 40
0.2857142857142857
 40
0.4285714285714285
 40
0.4285714285714285
 40
0.4285714285714285
 40
0.5714285714285714
 40
0.5714285714285714
 40
0.5714285714285714
 40
0.7142857142857142
 40
0.7142857142857142
 40
0.7142857142857142
 40
0.8571428571428571
 40
0.8571428571428571
 40
0.8571428571428571
 40
1.0
 40
1.0
 40
1.0
 40
1.0
 10
13.97002362204724
 20
9.684956692913385
 30
0.0
 10
13.94423622047244
 20
9.72722440944882
 30
0.0
 10
13.95427165354331
 20
9.77762598425197
 30
0.0
 10
13.91737795275591
 20
9.841149606299213
 30
0.0
 10
13.90733070866142
 20
9.858444881889763
 30
0.0
 10
13.88926771653543
 20
9.887468503937008
 30
0.0
 10
13.87533070866142
 20
9.903850393700788
 30
0.0
 10
13.85006692913386
 20
9.93353937007874
 30
0.0
 10
13.84282677165354
 20
9.920165354330708
 30
0.0
 10
13.82168897637795
 20
9.957905511811024
 30
0.0
 10
13.82422440944882
 20
10.01091732283465
 30
0.0
 10
13.842
 20
10.00429921259843
 30
0.0
 10
13.86164960629921
 20
10.05278346456693
 30
0.0
 10
14.00258267716536
 20
10.40050393700787
 30
0.0
 10
13.79093700787402
 20
10.56153543307087
 30
0.0
 10
14.04465748031496
 20
10.38804724409449
 30
0.0
 10
14.13311417322835
 20
10.32756299212598
 30
0.0
 10
14.27882677165354
 20
10.23687007874016
 30
0.0
 10
14.30755511811024
 20
10.1256811023622
 30
0.0
 10
14.35496062992126
 20
9.942220472440946
 30
0.0
 10
14.07036614173228
 20
9.663314960629922
 30
0.0
 10
13.97002362204724
 20
9.684956692913385
 30
0.0
  0
SPLINE
  5
7E
330
1F
100
AcDbEntity
  8
Layer 1
370
     9
100
AcDbSpline
210
0.0
220
0.0
230
1.0
 70
    11
 71
     3
 72
    35
 73
    31
 74
     0
 42
0.0000000001
 43
0.0000000001
 40
0.0
 40
0.0
 40
0.0
 40
0.0
 40
0.1
 40
0.1
 40
0.1
 40
0.2
 40
0.2
 40
0.2
 40
0.3
 40
0.3
 40
0.3
 40
0.4
 40
0.4
 40
0.4
 40
0.5
 40
0.5
 40
0.5
 40
0.6000000000000001
 40
0.6000000000000001
 40
0.6000000000000001
 40
0.7000000000000001
 40
0.7000000000000001
 40
0.7000000000000001
 40
0.8
 40
0.8
 40
0.8
 40
0.9
 40
0.9
 40
0.9
 40
1.0
 40
1.0
 40
1.0
 40
1.0
 10
11.77375590551181
 20
9.795807086614174
 30
0.0
 10
11.77629527559055
 20
9.729342519685039
 30
0.0
 10
11.74224409448819
 20
9.739350393700787
 30
0.0
 10
11.675
 20
9.732145669291338
 30
0.0
 10
11.3426968503937
 20
9.696547244094488
 30
0.0
 10
11.48486614173228
 20
9.551881889763779
 30
0.0
 10
11.10925984251969
 20
9.81781496062992
 30
0.0
 10
10.91885433070866
 20
9.952622047244095
 30
0.0
 10
10.82827559055118
 20
10.01917322834646
 30
0.0
 10
10.70283464566929
 20
10.21264960629921
 30
0.0
 10
10.61629527559055
 20
10.34612598425197
 30
0.0
 10
10.46972047244095
 20
10.65594094488189
 30
0.0
 10
10.60877952755905
 20
10.78853937007874
 30
0.0
 10
10.71053543307087
 20
10.88556299212599
 30
0.0
 10
10.98675590551181
 20
10.8666811023622
 30
0.0
 10
11.14653937007874
 20
10.83796456692913
 30
0.0
 10
11.21486220472441
 20
10.82568897637795
 30
0.0
 10
11.18072440944882
 20
10.7755157480315
 30
0.0
 10
11.16297244094488
 20
10.73131102362205
 30
0.0
 10
11.12349606299213
 20
10.63302362204724
 30
0.0
 10
11.13722047244094
 20
10.52676771653543
 30
0.0
 10
11.13151181102362
 20
10.44463385826772
 30
0.0
 10
11.12816929133858
 20
10.39658267716535
 30
0.0
 10
11.10386614173228
 20
10.38551968503937
 30
0.0
 10
11.08566535433071
 20
10.34105511811024
 30
0.0
 10
10.99651968503937
 20
10.12327165354331
 30
0.0
 10
11.33926377952756
 20
9.907208661417323
 30
0.0
 10
11.51743307086614
 20
9.855102362204724
 30
0.0
 10
11.56805905511811
 20
9.840299212598426
 30
0.0
 10
11.74560236220472
 20
9.812523622047244
 30
0.0
 10
11.77375590551181
 20
9.795807086614174
 30
0.0
  0
SPLINE
  5
7F
330
1F
100
AcDbEntity
  8
Layer 1
370
     9
100
AcDbSpline
210
0.0
220
0.0
230
1.0
 70
    11
 71
     3
 72
    83
 73
    79
 74
     0
 42
0.0000000001
 43
0.0000000001
 40
0.0
 40
0.0
 40
0.0
 40
0.0
 40
0.0384615384615385
 40
0.0384615384615385
 40
0.0384615384615385
 40
0.0769230769230769
 40
0.0769230769230769
 40
0.0769230769230769
 40
0.1153846153846154
 40
0.1153846153846154
 40
0.1153846153846154
 40
0.1538461538461539
 40
0.1538461538461539
 40
0.1538461538461539
 40
0.1923076923076923
 40
0.1923076923076923
 40
0.1923076923076923
 40
0.2307692307692308
 40
0.2307692307692308
 40
0.2307692307692308
 40
0.2692307692307693
 40
0.2692307692307693
 40
0.2692307692307693
 40
0.3076923076923077
 40
0.3076923076923077
 40
0.3076923076923077
 40
0.3461538461538461
 40
0.3461538461538461
 40
0.3461538461538461
 40
0.3846153846153846
 40
0.3846153846153846
 40
0.3846153846153846
 40
0.4230769230769231
 40
0.4230769230769231
 40
0.4230769230769231
 40
0.4615384615384616
 40
0.4615384615384616
 40
0.4615384615384616
 40
0.5
 40
0.5
 40
0.5
 40
0.5384615384615385
 40
0.5384615384615385
 40
0.5384615384615385
 40
0.576923076923077
 40
0.576923076923077
 40
0.576923076923077
 40
0.6153846153846154
 40
0.6153846153846154
 40
0.6153846153846154
 40
0.6538461538461539
 40
0.6538461538461539
 40
0.6538461538461539
 40
0.6923076923076923
 40
0.6923076923076923
 40
0.6923076923076923
 40
0.7307692307692308
 40
0.7307692307692308
 40
0.7307692307692308
 40
0.7692307692307693
 40
0.7692307692307693
 40
0.7692307692307693
 40
0.8076923076923077
 40
0.8076923076923077
 40
0.8076923076923077
 40
0.8461538461538463
 40
0.8461538461538463
 40
0.8461538461538463
 40
0.8846153846153847
 40
0.8846153846153847
 40
0.8846153846153847
 40
0.9230769230769231
 40
0.9230769230769231
 40
0.9230769230769231
 40
0.9615384615384616
 40
0.9615384615384616
 40
0.9615384615384616
 40
1.0
 40
1.0
 40
1.0
 40
1.0
 10
11.55096062992126
 20
10.52474803149606
 30
0.0
 10
11.47278346456693
 20
10.5045905511811
 30
0.0
 10
11.4493031496063
 20
10.54078346456693
 30
0.0
 10
11.3692125984252
 20
10.52274015748032
 30
0.0
 10
11.28853149606299
 20
10.50456692913386
 30
0.0
 10
11.25815354330709
 20
10.51752362204724
 30
0.0
 10
11.29766929133858
 20
10.60455511811024
 30
0.0
 10
11.36041732283465
 20
10.74275196850394
 30
0.0
 10
11.39625984251968
 20
10.83973622047244
 30
0.0
 10
11.56113385826772
 20
10.94253149606299
 30
0.0
 10
11.58172047244095
 20
10.95536220472441
 30
0.0
 10
11.60450393700787
 20
10.97276771653543
 30
0.0
 10
11.62429921259842
 20
10.98446062992126
 30
0.0
 10
11.7391968503937
 20
11.05233070866142
 30
0.0
 10
11.78302362204724
 20
11.0370905511811
 30
0.0
 10
11.84929527559055
 20
11.05548031496063
 30
0.0
 10
12.23674409448819
 20
11.1629842519685
 30
0.0
 10
12.59925590551181
 20
11.0070905511811
 30
0.0
 10
12.86533858267716
 20
10.76317716535433
 30
0.0
 10
12.90370472440945
 20
10.72800787401575
 30
0.0
 10
12.92381496062992
 20
10.68865748031496
 30
0.0
 10
12.95624803149606
 20
10.6536968503937
 30
0.0
 10
12.9862874015748
 20
10.62131496062992
 30
0.0
 10
13.03277165354331
 20
10.59621653543307
 30
0.0
 10
13.02886220472441
 20
10.54374409448819
 30
0.0
 10
12.98018503937008
 20
10.52161023622047
 30
0.0
 10
12.91570866141732
 20
10.53198818897638
 30
0.0
 10
12.88845669291339
 20
10.51093700787402
 30
0.0
 10
12.88981102362205
 20
10.46436614173228
 30
0.0
 10
12.91238976377953
 20
10.46806692913386
 30
0.0
 10
12.94072047244095
 20
10.43808267716535
 30
0.0
 10
12.97908661417323
 20
10.3974842519685
 30
0.0
 10
13.07194881889764
 20
10.27027559055118
 30
0.0
 10
13.0332874015748
 20
10.19596850393701
 30
0.0
 10
12.98978346456693
 20
10.11235826771654
 30
0.0
 10
12.78558661417323
 20
10.05107480314961
 30
0.0
 10
12.69641338582677
 20
10.05993700787402
 30
0.0
 10
12.68363385826772
 20
10.18327165354331
 30
0.0
 10
12.72392125984252
 20
10.15633070866142
 30
0.0
 10
12.67073622047244
 20
10.29157874015748
 30
0.0
 10
12.53012992125984
 20
10.64914173228346
 30
0.0
 10
11.91907086614173
 20
10.65994488188976
 30
0.0
 10
11.80438582677165
 20
10.35527952755906
 30
0.0
 10
11.72692519685039
 20
10.14951968503937
 30
0.0
 10
11.90297244094488
 20
10.04605511811024
 30
0.0
 10
11.91056692913386
 20
9.964645669291338
 30
0.0
 10
11.86227952755906
 20
9.962358267716535
 30
0.0
 10
11.82634251968504
 20
9.973326771653543
 30
0.0
 10
11.79477952755905
 20
9.997625984251968
 30
0.0
 10
11.75705118110236
 20
10.02667716535433
 30
0.0
 10
11.76581102362205
 20
10.0430157480315
 30
0.0
 10
11.74621653543307
 20
10.09286614173228
 30
0.0
 10
11.66396062992126
 20
10.30216535433071
 30
0.0
 10
11.6722125984252
 20
10.45417322834646
 30
0.0
 10
11.85587401574803
 20
10.59122047244094
 30
0.0
 10
12.01109448818898
 20
10.70704724409449
 30
0.0
 10
12.24208267716535
 20
10.70254724409449
 30
0.0
 10
12.40468503937008
 20
10.62653149606299
 30
0.0
 10
12.43349606299213
 20
10.61306299212598
 30
0.0
 10
12.42138976377953
 20
10.61064960629921
 30
0.0
 10
12.44955118110236
 20
10.59588976377953
 30
0.0
 10
12.51299212598425
 20
10.56263779527559
 30
0.0
 10
12.61174015748031
 20
10.52173622047244
 30
0.0
 10
12.66124409448819
 20
10.45410236220472
 30
0.0
 10
12.68253149606299
 20
10.42501181102362
 30
0.0
 10
12.68834251968504
 20
10.40017322834646
 30
0.0
 10
12.73307480314961
 20
10.39986220472441
 30
0.0
 10
12.77023622047244
 20
10.65655905511811
 30
0.0
 10
12.43781496062992
 20
10.8381220472441
 30
0.0
 10
12.2030157480315
 20
10.86409842519685
 30
0.0
 10
12.00484645669291
 20
10.88602362204724
 30
0.0
 10
11.74611811023622
 20
10.8451968503937
 30
0.0
 10
11.63458267716535
 20
10.68839763779528
 30
0.0
 10
11.6185905511811
 20
10.6659094488189
 30
0.0
 10
11.60035826771654
 20
10.63676771653543
 30
0.0
 10
11.58712992125984
 20
10.61193307086614
 30
0.0
 10
11.56791338582677
 20
10.57585826771654
 30
0.0
 10
11.57291732283465
 20
10.55653543307087
 30
0.0
 10
11.55096062992126
 20
10.52474803149606
 30
0.0
  0
SPLINE
  5
80
330
1F
100
AcDbEntity
  8
Layer 1
370
     9
100
AcDbSpline
210
0.0
220
0.0
230
1.0
 70
    11
 71
     3
 72
    32
 73
    28
 74
     0
 42
0.0000000001
 43
0.0000000001
 40
0.0
 40
0.0
 40
0.0
 40
0.0
 40
0.1111111111111111
 40
0.1111111111111111
 40
0.1111111111111111
 40
0.2222222222222222
 40
0.2222222222222222
 40
0.2222222222222222
 40
0.3333333333333333
 40
0.3333333333333333
 40
0.3333333333333333
 40
0.4444444444444444
 40
0.4444444444444444
 40
0.4444444444444444
 40
0.5555555555555556
 40
0.5555555555555556
 40
0.5555555555555556
 40
0.6666666666666666
 40
0.6666666666666666
 40
0.6666666666666666
 40
0.7777777777777777
 40
0.7777777777777777
 40
0.7777777777777777
 40
0.8888888888888888
 40
0.8888888888888888
 40
0.8888888888888888
 40
1.0
 40
1.0
 40
1.0
 40
1.0
 10
13.52590157480315
 20
10.71792913385827
 30
0.0
 10
13.62232283464567
 20
10.59013385826772
 30
0.0
 10
13.68915748031496
 20
10.41003937007874
 30
0.0
 10
13.64742125984252
 20
10.2408188976378
 30
0.0
 10
13.62927952755905
 20
10.16727165354331
 30
0.0
 10
13.64498818897638
 20
10.11100787401575
 30
0.0
 10
13.55527559055118
 20
10.11799212598425
 30
0.0
 10
13.52727952755905
 20
10.20255905511811
 30
0.0
 10
13.50211023622047
 20
10.30595669291339
 30
0.0
 10
13.34785039370079
 20
10.32947637795276
 30
0.0
 10
13.24635039370079
 20
10.34494881889764
 30
0.0
 10
13.26101181102362
 20
10.34856299212598
 30
0.0
 10
13.25605511811024
 20
10.44423228346457
 30
0.0
 10
13.24962992125984
 20
10.56822047244095
 30
0.0
 10
13.17201181102362
 20
10.65189763779528
 30
0.0
 10
13.12092519685039
 20
10.73286220472441
 30
0.0
 10
13.09616929133858
 20
10.77209448818898
 30
0.0
 10
13.06129527559055
 20
10.81587007874016
 30
0.0
 10
13.03151181102362
 20
10.85299212598425
 30
0.0
 10
12.96538188976378
 20
10.93540551181102
 30
0.0
 10
12.86977952755906
 20
10.9966062992126
 30
0.0
 10
12.91406299212598
 20
11.03864960629921
 30
0.0
 10
12.93318897637795
 20
11.05680708661417
 30
0.0
 10
13.06535433070866
 20
11.02584251968504
 30
0.0
 10
13.09147637795276
 20
11.01729133858268
 30
0.0
 10
13.2816062992126
 20
10.95502362204724
 30
0.0
 10
13.40118897637795
 20
10.88322047244094
 30
0.0
 10
13.52590157480315
 20
10.71792913385827
 30
0.0
  0
SPLINE
  5
81
330
1F
100
AcDbEntity
  8
Layer 1
370
     9
100
AcDbSpline
210
0.0
220
0.0
230
1.0
 70
    11
 71
     3
 72
   698
 73
   694
 74
     0
 42
0.0000000001
 43
0.0000000001
 40
0.0
 40
0.0
 40
0.0
 40
0.0
 40
0.0043290043290043
 40
0.0043290043290043
 40
0.0043290043290043
 40
0.0086580086580087
 40
0.0086580086580087
 40
0.0086580086580087
 40
0.012987012987013
 40
0.012987012987013
 40
0.012987012987013
 40
0.0173160173160173
 40
0.0173160173160173
 40
0.0173160173160173
 40
0.0216450216450216
 40
0.0216450216450216
 40
0.0216450216450216
 40
0.025974025974026
 40
0.025974025974026
 40
0.025974025974026
 40
0.0303030303030303
 40
0.0303030303030303
 40
0.0303030303030303
 40
0.0346320346320346
 40
0.0346320346320346
 40
0.0346320346320346
 40
0.038961038961039
 40
0.038961038961039
 40
0.038961038961039
 40
0.0432900432900433
 40
0.0432900432900433
 40
0.0432900432900433
 40
0.0476190476190476
 40
0.0476190476190476
 40
0.0476190476190476
 40
0.051948051948052
 40
0.051948051948052
 40
0.051948051948052
 40
0.0562770562770563
 40
0.0562770562770563
 40
0.0562770562770563
 40
0.0606060606060606
 40
0.0606060606060606
 40
0.0606060606060606
 40
0.0649350649350649
 40
0.0649350649350649
 40
0.0649350649350649
 40
0.0692640692640693
 40
0.0692640692640693
 40
0.0692640692640693
 40
0.0735930735930736
 40
0.0735930735930736
 40
0.0735930735930736
 40
0.0779220779220779
 40
0.0779220779220779
 40
0.0779220779220779
 40
0.0822510822510823
 40
0.0822510822510823
 40
0.0822510822510823
 40
0.0865800865800866
 40
0.0865800865800866
 40
0.0865800865800866
 40
0.0909090909090909
 40
0.0909090909090909
 40
0.0909090909090909
 40
0.0952380952380952
 40
0.0952380952380952
 40
0.0952380952380952
 40
0.0995670995670996
 40
0.0995670995670996
 40
0.0995670995670996
 40
0.1038961038961039
 40
0.1038961038961039
 40
0.1038961038961039
 40
0.1082251082251082
 40
0.1082251082251082
 40
0.1082251082251082
 40
0.1125541125541126
 40
0.1125541125541126
 40
0.1125541125541126
 40
0.1168831168831169
 40
0.1168831168831169
 40
0.1168831168831169
 40
0.1212121212121212
 40
0.1212121212121212
 40
0.1212121212121212
 40
0.1255411255411255
 40
0.1255411255411255
 40
0.1255411255411255
 40
0.1298701298701299
 40
0.1298701298701299
 40
0.1298701298701299
 40
0.1341991341991342
 40
0.1341991341991342
 40
0.1341991341991342
 40
0.1385281385281385
 40
0.1385281385281385
 40
0.1385281385281385
 40
0.1428571428571428
 40
0.1428571428571428
 40
0.1428571428571428
 40
0.1471861471861472
 40
0.1471861471861472
 40
0.1471861471861472
 40
0.1515151515151515
 40
0.1515151515151515
 40
0.1515151515151515
 40
0.1558441558441558
 40
0.1558441558441558
 40
0.1558441558441558
 40
0.1601731601731602
 40
0.1601731601731602
 40
0.1601731601731602
 40
0.1645021645021645
 40
0.1645021645021645
 40
0.1645021645021645
 40
0.1688311688311688
 40
0.1688311688311688
 40
0.1688311688311688
 40
0.1731601731601732
 40
0.1731601731601732
 40
0.1731601731601732
 40
0.1774891774891775
 40
0.1774891774891775
 40
0.1774891774891775
 40
0.1818181818181818
 40
0.1818181818181818
 40
0.1818181818181818
 40
0.1861471861471861
 40
0.1861471861471861
 40
0.1861471861471861
 40
0.1904761904761905
 40
0.1904761904761905
 40
0.1904761904761905
 40
0.1948051948051948
 40
0.1948051948051948
 40
0.1948051948051948
 40
0.1991341991341991
 40
0.1991341991341991
 40
0.1991341991341991
 40
0.2034632034632035
 40
0.2034632034632035
 40
0.2034632034632035
 40
0.2077922077922078
 40
0.2077922077922078
 40
0.2077922077922078
 40
0.2121212121212121
 40
0.2121212121212121
 40
0.2121212121212121
 40
0.2164502164502164
 40
0.2164502164502164
 40
0.2164502164502164
 40
0.2207792207792208
 40
0.2207792207792208
 40
0.2207792207792208
 40
0.2251082251082251
 40
0.2251082251082251
 40
0.2251082251082251
 40
0.2294372294372294
 40
0.2294372294372294
 40
0.2294372294372294
 40
0.2337662337662338
 40
0.2337662337662338
 40
0.2337662337662338
 40
0.2380952380952381
 40
0.2380952380952381
 40
0.2380952380952381
 40
0.2424242424242424
 40
0.2424242424242424
 40
0.2424242424242424
 40
0.2467532467532468
 40
0.2467532467532468
 40
0.2467532467532468
 40
0.2510822510822511
 40
0.2510822510822511
 40
0.2510822510822511
 40
0.2554112554112554
 40
0.2554112554112554
 40
0.2554112554112554
 40
0.2597402597402597
 40
0.2597402597402597
 40
0.2597402597402597
 40
0.2640692640692641
 40
0.2640692640692641
 40
0.2640692640692641
 40
0.2683982683982684
 40
0.2683982683982684
 40
0.2683982683982684
 40
0.2727272727272727
 40
0.2727272727272727
 40
0.2727272727272727
 40
0.2770562770562771
 40
0.2770562770562771
 40
0.2770562770562771
 40
0.2813852813852814
 40
0.2813852813852814
 40
0.2813852813852814
 40
0.2857142857142857
 40
0.2857142857142857
 40
0.2857142857142857
 40
0.29004329004329
 40
0.29004329004329
 40
0.29004329004329
 40
0.2943722943722944
 40
0.2943722943722944
 40
0.2943722943722944
 40
0.2987012987012987
 40
0.2987012987012987
 40
0.2987012987012987
 40
0.303030303030303
 40
0.303030303030303
 40
0.303030303030303
 40
0.3073593073593073
 40
0.3073593073593073
 40
0.3073593073593073
 40
0.3116883116883117
 40
0.3116883116883117
 40
0.3116883116883117
 40
0.316017316017316
 40
0.316017316017316
 40
0.316017316017316
 40
0.3203463203463203
 40
0.3203463203463203
 40
0.3203463203463203
 40
0.3246753246753247
 40
0.3246753246753247
 40
0.3246753246753247
 40
0.329004329004329
 40
0.329004329004329
 40
0.329004329004329
 40
0.3333333333333333
 40
0.3333333333333333
 40
0.3333333333333333
 40
0.3376623376623377
 40
0.3376623376623377
 40
0.3376623376623377
 40
0.341991341991342
 40
0.341991341991342
 40
0.341991341991342
 40
0.3463203463203463
 40
0.3463203463203463
 40
0.3463203463203463
 40
0.3506493506493507
 40
0.3506493506493507
 40
0.3506493506493507
 40
0.354978354978355
 40
0.354978354978355
 40
0.354978354978355
 40
0.3593073593073593
 40
0.3593073593073593
 40
0.3593073593073593
 40
0.3636363636363636
 40
0.3636363636363636
 40
0.3636363636363636
 40
0.3679653679653679
 40
0.3679653679653679
 40
0.3679653679653679
 40
0.3722943722943723
 40
0.3722943722943723
 40
0.3722943722943723
 40
0.3766233766233766
 40
0.3766233766233766
 40
0.3766233766233766
 40
0.3809523809523809
 40
0.3809523809523809
 40
0.3809523809523809
 40
0.3852813852813853
 40
0.3852813852813853
 40
0.3852813852813853
 40
0.3896103896103896
 40
0.3896103896103896
 40
0.3896103896103896
 40
0.3939393939393939
 40
0.3939393939393939
 40
0.3939393939393939
 40
0.3982683982683983
 40
0.3982683982683983
 40
0.3982683982683983
 40
0.4025974025974026
 40
0.4025974025974026
 40
0.4025974025974026
 40
0.4069264069264069
 40
0.4069264069264069
 40
0.4069264069264069
 40
0.4112554112554113
 40
0.4112554112554113
 40
0.4112554112554113
 40
0.4155844155844156
 40
0.4155844155844156
 40
0.4155844155844156
 40
0.4199134199134199
 40
0.4199134199134199
 40
0.4199134199134199
 40
0.4242424242424243
 40
0.4242424242424243
 40
0.4242424242424243
 40
0.4285714285714285
 40
0.4285714285714285
 40
0.4285714285714285
 40
0.4329004329004329
 40
0.4329004329004329
 40
0.4329004329004329
 40
0.4372294372294372
 40
0.4372294372294372
 40
0.4372294372294372
 40
0.4415584415584415
 40
0.4415584415584415
 40
0.4415584415584415
 40
0.4458874458874459
 40
0.4458874458874459
 40
0.4458874458874459
 40
0.4502164502164502
 40
0.4502164502164502
 40
0.4502164502164502
 40
0.4545454545454545
 40
0.4545454545454545
 40
0.4545454545454545
 40
0.4588744588744589
 40
0.4588744588744589
 40
0.4588744588744589
 40
0.4632034632034632
 40
0.4632034632034632
 40
0.4632034632034632
 40
0.4675324675324675
 40
0.4675324675324675
 40
0.4675324675324675
 40
0.4718614718614719
 40
0.4718614718614719
 40
0.4718614718614719
 40
0.4761904761904762
 40
0.4761904761904762
 40
0.4761904761904762
 40
0.4805194805194805
 40
0.4805194805194805
 40
0.4805194805194805
 40
0.4848484848484849
 40
0.4848484848484849
 40
0.4848484848484849
 40
0.4891774891774892
 40
0.4891774891774892
 40
0.4891774891774892
 40
0.4935064935064935
 40
0.4935064935064935
 40
0.4935064935064935
 40
0.4978354978354979
 40
0.4978354978354979
 40
0.4978354978354979
 40
0.5021645021645021
 40
0.5021645021645021
 40
0.5021645021645021
 40
0.5064935064935064
 40
0.5064935064935064
 40
0.5064935064935064
 40
0.5108225108225108
 40
0.5108225108225108
 40
0.5108225108225108
 40
0.5151515151515151
 40
0.5151515151515151
 40
0.5151515151515151
 40
0.5194805194805194
 40
0.5194805194805194
 40
0.5194805194805194
 40
0.5238095238095238
 40
0.5238095238095238
 40
0.5238095238095238
 40
0.5281385281385281
 40
0.5281385281385281
 40
0.5281385281385281
 40
0.5324675324675324
 40
0.5324675324675324
 40
0.5324675324675324
 40
0.5367965367965368
 40
0.5367965367965368
 40
0.5367965367965368
 40
0.5411255411255411
 40
0.5411255411255411
 40
0.5411255411255411
 40
0.5454545454545454
 40
0.5454545454545454
 40
0.5454545454545454
 40
0.5497835497835498
 40
0.5497835497835498
 40
0.5497835497835498
 40
0.5541125541125541
 40
0.5541125541125541
 40
0.5541125541125541
 40
0.5584415584415584
 40
0.5584415584415584
 40
0.5584415584415584
 40
0.5627705627705628
 40
0.5627705627705628
 40
0.5627705627705628
 40
0.5670995670995671
 40
0.5670995670995671
 40
0.5670995670995671
 40
0.5714285714285714
 40
0.5714285714285714
 40
0.5714285714285714
 40
0.5757575757575758
 40
0.5757575757575758
 40
0.5757575757575758
 40
0.5800865800865801
 40
0.5800865800865801
 40
0.5800865800865801
 40
0.5844155844155844
 40
0.5844155844155844
 40
0.5844155844155844
 40
0.5887445887445888
 40
0.5887445887445888
 40
0.5887445887445888
 40
0.5930735930735931
 40
0.5930735930735931
 40
0.5930735930735931
 40
0.5974025974025974
 40
0.5974025974025974
 40
0.5974025974025974
 40
0.6017316017316018
 40
0.6017316017316018
 40
0.6017316017316018
 40
0.6060606060606061
 40
0.6060606060606061
 40
0.6060606060606061
 40
0.6103896103896104
 40
0.6103896103896104
 40
0.6103896103896104
 40
0.6147186147186147
 40
0.6147186147186147
 40
0.6147186147186147
 40
0.6190476190476191
 40
0.6190476190476191
 40
0.6190476190476191
 40
0.6233766233766234
 40
0.6233766233766234
 40
0.6233766233766234
 40
0.6277056277056277
 40
0.6277056277056277
 40
0.6277056277056277
 40
0.6320346320346321
 40
0.6320346320346321
 40
0.6320346320346321
 40
0.6363636363636364
 40
0.6363636363636364
 40
0.6363636363636364
 40
0.6406926406926406
 40
0.6406926406926406
 40
0.6406926406926406
 40
0.645021645021645
 40
0.645021645021645
 40
0.645021645021645
 40
0.6493506493506493
 40
0.6493506493506493
 40
0.6493506493506493
 40
0.6536796536796536
 40
0.6536796536796536
 40
0.6536796536796536
 40
0.658008658008658
 40
0.658008658008658
 40
0.658008658008658
 40
0.6623376623376623
 40
0.6623376623376623
 40
0.6623376623376623
 40
0.6666666666666666
 40
0.6666666666666666
 40
0.6666666666666666
 40
0.670995670995671
 40
0.670995670995671
 40
0.670995670995671
 40
0.6753246753246753
 40
0.6753246753246753
 40
0.6753246753246753
 40
0.6796536796536796
 40
0.6796536796536796
 40
0.6796536796536796
 40
0.683982683982684
 40
0.683982683982684
 40
0.683982683982684
 40
0.6883116883116883
 40
0.6883116883116883
 40
0.6883116883116883
 40
0.6926406926406926
 40
0.6926406926406926
 40
0.6926406926406926
 40
0.696969696969697
 40
0.696969696969697
 40
0.696969696969697
 40
0.7012987012987013
 40
0.7012987012987013
 40
0.7012987012987013
 40
0.7056277056277056
 40
0.7056277056277056
 40
0.7056277056277056
 40
0.70995670995671
 40
0.70995670995671
 40
0.70995670995671
 40
0.7142857142857143
 40
0.7142857142857143
 40
0.7142857142857143
 40
0.7186147186147186
 40
0.7186147186147186
 40
0.7186147186147186
 40
0.7229437229437229
 40
0.7229437229437229
 40
0.7229437229437229
 40
0.7272727272727273
 40
0.7272727272727273
 40
0.7272727272727273
 40
0.7316017316017316
 40
0.7316017316017316
 40
0.7316017316017316
 40
0.7359307359307359
 40
0.7359307359307359
 40
0.7359307359307359
 40
0.7402597402597403
 40
0.7402597402597403
 40
0.7402597402597403
 40
0.7445887445887446
 40
0.7445887445887446
 40
0.7445887445887446
 40
0.7489177489177489
 40
0.7489177489177489
 40
0.7489177489177489
 40
0.7532467532467533
 40
0.7532467532467533
 40
0.7532467532467533
 40
0.7575757575757576
 40
0.7575757575757576
 40
0.7575757575757576
 40
0.7619047619047619
 40
0.7619047619047619
 40
0.7619047619047619
 40
0.7662337662337663
 40
0.7662337662337663
 40
0.7662337662337663
 40
0.7705627705627706
 40
0.7705627705627706
 40
0.7705627705627706
 40
0.7748917748917749
 40
0.7748917748917749
 40
0.7748917748917749
 40
0.7792207792207793
 40
0.7792207792207793
 40
0.7792207792207793
 40
0.7835497835497836
 40
0.7835497835497836
 40
0.7835497835497836
 40
0.7878787878787878
 40
0.7878787878787878
 40
0.7878787878787878
 40
0.7922077922077922
 40
0.7922077922077922
 40
0.7922077922077922
 40
0.7965367965367965
 40
0.7965367965367965
 40
0.7965367965367965
 40
0.8008658008658008
 40
0.8008658008658008
 40
0.8008658008658008
 40
0.8051948051948052
 40
0.8051948051948052
 40
0.8051948051948052
 40
0.8095238095238095
 40
0.8095238095238095
 40
0.8095238095238095
 40
0.8138528138528138
 40
0.8138528138528138
 40
0.8138528138528138
 40
0.8181818181818182
 40
0.8181818181818182
 40
0.8181818181818182
 40
0.8225108225108225
 40
0.8225108225108225
 40
0.8225108225108225
 40
0.8268398268398268
 40
0.8268398268398268
 40
0.8268398268398268
 40
0.8311688311688312
 40
0.8311688311688312
 40
0.8311688311688312
 40
0.8354978354978355
 40
0.8354978354978355
 40
0.8354978354978355
 40
0.8398268398268398
 40
0.8398268398268398
 40
0.8398268398268398
 40
0.8441558441558441
 40
0.8441558441558441
 40
0.8441558441558441
 40
0.8484848484848485
 40
0.8484848484848485
 40
0.8484848484848485
 40
0.8528138528138528
 40
0.8528138528138528
 40
0.8528138528138528
 40
0.8571428571428571
 40
0.8571428571428571
 40
0.8571428571428571
 40
0.8614718614718615
 40
0.8614718614718615
 40
0.8614718614718615
 40
0.8658008658008658
 40
0.8658008658008658
 40
0.8658008658008658
 40
0.8701298701298701
 40
0.8701298701298701
 40
0.8701298701298701
 40
0.8744588744588745
 40
0.8744588744588745
 40
0.8744588744588745
 40
0.8787878787878788
 40
0.8787878787878788
 40
0.8787878787878788
 40
0.8831168831168831
 40
0.8831168831168831
 40
0.8831168831168831
 40
0.8874458874458875
 40
0.8874458874458875
 40
0.8874458874458875
 40
0.8917748917748918
 40
0.8917748917748918
 40
0.8917748917748918
 40
0.8961038961038961
 40
0.8961038961038961
 40
0.8961038961038961
 40
0.9004329004329005
 40
0.9004329004329005
 40
0.9004329004329005
 40
0.9047619047619048
 40
0.9047619047619048
 40
0.9047619047619048
 40
0.9090909090909091
 40
0.9090909090909091
 40
0.9090909090909091
 40
0.9134199134199135
 40
0.9134199134199135
 40
0.9134199134199135
 40
0.9177489177489178
 40
0.9177489177489178
 40
0.9177489177489178
 40
0.922077922077922
 40
0.922077922077922
 40
0.922077922077922
 40
0.9264069264069265
 40
0.9264069264069265
 40
0.9264069264069265
 40
0.9307359307359307
 40
0.9307359307359307
 40
0.9307359307359307
 40
0.935064935064935
 40
0.935064935064935
 40
0.935064935064935
 40
0.9393939393939394
 40
0.9393939393939394
 40
0.9393939393939394
 40
0.9437229437229437
 40
0.9437229437229437
 40
0.9437229437229437
 40
0.948051948051948
 40
0.948051948051948
 40
0.948051948051948
 40
0.9523809523809523
 40
0.9523809523809523
 40
0.9523809523809523
 40
0.9567099567099567
 40
0.9567099567099567
 40
0.9567099567099567
 40
0.961038961038961
 40
0.961038961038961
 40
0.961038961038961
 40
0.9653679653679653
 40
0.9653679653679653
 40
0.9653679653679653
 40
0.9696969696969697
 40
0.9696969696969697
 40
0.9696969696969697
 40
0.974025974025974
 40
0.974025974025974
 40
0.974025974025974
 40
0.9783549783549783
 40
0.9783549783549783
 40
0.9783549783549783
 40
0.9826839826839827
 40
0.9826839826839827
 40
0.9826839826839827
 40
0.987012987012987
 40
0.987012987012987
 40
0.987012987012987
 40
0.9913419913419913
 40
0.9913419913419913
 40
0.9913419913419913
 40
0.9956709956709957
 40
0.9956709956709957
 40
0.9956709956709957
 40
1.0
 40
1.0
 40
1.0
 40
1.0
 10
9.740472440944881
 20
-10.15218503937008
 30
0.0
 10
9.795133858267716
 20
-10.27255905511811
 30
0.0
 10
9.918279527559054
 20
-10.53216929133858
 30
0.0
 10
9.987023622047245
 20
-10.62177165354331
 30
0.0
 10
10.05406692913386
 20
-10.70916141732283
 30
0.0
 10
10.10441732283465
 20
-10.81037795275591
 30
0.0
 10
10.17211023622047
 20
-10.8946062992126
 30
0.0
 10
10.1893188976378
 20
-10.91601181102362
 30
0.0
 10
10.19860236220472
 20
-10.92488582677165
 30
0.0
 10
10.21055511811024
 20
-10.94184251968504
 30
0.0
 10
10.23963779527559
 20
-10.98311023622047
 30
0.0
 10
10.25941732283465
 20
-11.00811417322835
 30
0.0
 10
10.28804724409449
 20
-11.04559842519685
 30
0.0
 10
10.39127559055118
 20
-11.18077165354331
 30
0.0
 10
10.51602362204724
 20
-11.30264566929134
 30
0.0
 10
10.62970078740157
 20
-11.42884645669291
 30
0.0
 10
10.71191338582677
 20
-11.52011811023622
 30
0.0
 10
10.91172440944882
 20
-11.69193307086614
 30
0.0
 10
11.00647637795276
 20
-11.77694488188976
 30
0.0
 10
11.07056692913386
 20
-11.83444488188976
 30
0.0
 10
11.13151181102362
 20
-11.88330708661417
 30
0.0
 10
11.19727952755906
 20
-11.9385905511811
 30
0.0
 10
11.25673228346457
 20
-11.98855905511811
 30
0.0
 10
11.35146456692913
 20
-12.04450393700787
 30
0.0
 10
11.40526771653543
 20
-12.09314173228347
 30
0.0
 10
11.40526771653543
 20
-12.09314173228347
 30
0.0
 10
11.83345275590551
 20
-12.3898031496063
 30
0.0
 10
11.83345275590551
 20
-12.3898031496063
 30
0.0
 10
11.89763385826772
 20
-12.43244094488189
 30
0.0
 10
11.9850905511811
 20
-12.48081496062992
 30
0.0
 10
12.05206299212598
 20
-12.52407480314961
 30
0.0
 10
12.12441732283465
 20
-12.5708031496063
 30
0.0
 10
12.20844094488189
 20
-12.61255118110236
 30
0.0
 10
12.27850393700787
 20
-12.65982677165354
 30
0.0
 10
12.4569094488189
 20
-12.78020078740157
 30
0.0
 10
12.67066141732283
 20
-12.87368110236221
 30
0.0
 10
12.85324803149606
 20
-12.99085826771654
 30
0.0
 10
12.87463385826772
 20
-13.00458267716535
 30
0.0
 10
12.93616141732283
 20
-13.06345275590551
 30
0.0
 10
12.95806692913386
 20
-13.04263779527559
 30
0.0
 10
12.9787125984252
 20
-13.02301968503937
 30
0.0
 10
12.86571653543307
 20
-12.57421653543307
 30
0.0
 10
12.85511417322835
 20
-12.51166535433071
 30
0.0
 10
12.76120078740158
 20
-11.95767322834646
 30
0.0
 10
12.90940157480315
 20
-11.44238582677165
 30
0.0
 10
13.21605905511811
 20
-11.01153937007874
 30
0.0
 10
13.39092125984252
 20
-10.76585826771653
 30
0.0
 10
13.5833031496063
 20
-10.51915748031496
 30
0.0
 10
13.79582677165354
 20
-10.30418897637795
 30
0.0
 10
13.90785433070866
 20
-10.19087007874016
 30
0.0
 10
14.30563385826772
 20
-9.694700787401574
 30
0.0
 10
14.36817716535433
 20
-9.58909842519685
 30
0.0
 10
14.49417322834646
 20
-9.376366141732284
 30
0.0
 10
14.55229921259843
 20
-9.270515748031496
 30
0.0
 10
14.59966535433071
 20
-9.012086614173228
 30
0.0
 10
14.63865748031496
 20
-8.799358267716535
 30
0.0
 10
14.64626377952756
 20
-8.878779527559056
 30
0.0
 10
14.61366929133858
 20
-8.58734251968504
 30
0.0
 10
14.59752755905512
 20
-8.443043307086613
 30
0.0
 10
14.51832677165354
 20
-8.219984251968503
 30
0.0
 10
14.45271653543307
 20
-8.103055118110236
 30
0.0
 10
14.45271653543307
 20
-8.103055118110236
 30
0.0
 10
14.32649212598425
 20
-7.904460629921259
 30
0.0
 10
14.32649212598425
 20
-7.904460629921259
 30
0.0
 10
14.21422047244094
 20
-7.763681102362205
 30
0.0
 10
14.12194488188976
 20
-7.705299212598425
 30
0.0
 10
13.9789094488189
 20
-7.613244094488189
 30
0.0
 10
13.76214960629921
 20
-7.473740157480315
 30
0.0
 10
13.49048031496063
 20
-7.399350393700788
 30
0.0
 10
13.21399212598425
 20
-7.412846456692914
 30
0.0
 10
12.99654330708661
 20
-7.423464566929134
 30
0.0
 10
12.72661417322835
 20
-7.459570866141732
 30
0.0
 10
12.54518897637795
 20
-7.556803149606299
 30
0.0
 10
12.47929921259843
 20
-7.59211811023622
 30
0.0
 10
12.40293307086614
 20
-7.630425196850394
 30
0.0
 10
12.34616535433071
 20
-7.681728346456693
 30
0.0
 10
12.31216535433071
 20
-7.712452755905511
 30
0.0
 10
12.31084645669291
 20
-7.736299212598425
 30
0.0
 10
12.2473937007874
 20
-7.721917322834646
 30
0.0
 10
12.24650393700787
 20
-7.719267716535433
 30
0.0
 10
12.23315748031496
 20
-5.794547244094488
 30
0.0
 10
12.26235433070866
 20
-5.76811811023622
 30
0.0
 10
12.29712992125984
 20
-5.754933070866142
 30
0.0
 10
12.38922440944882
 20
-5.760216535433071
 30
0.0
 10
12.44188188976378
 20
-5.755236220472441
 30
0.0
 10
12.5027125984252
 20
-5.74948031496063
 30
0.0
 10
12.53935039370079
 20
-5.737732283464567
 30
0.0
 10
12.59544488188976
 20
-5.727992125984252
 30
0.0
 10
12.64772047244094
 20
-5.718909448818898
 30
0.0
 10
12.69299606299213
 20
-5.703326771653543
 30
0.0
 10
12.73681889763779
 20
-5.688803149606299
 30
0.0
 10
12.79325196850394
 20
-5.670106299212598
 30
0.0
 10
12.80925196850394
 20
-5.661909448818897
 30
0.0
 10
12.86171653543307
 20
-5.632358267716535
 30
0.0
 10
13.15781496062992
 20
-5.465582677165354
 30
0.0
 10
13.09446850393701
 20
-5.138035433070866
 30
0.0
 10
12.95127165354331
 20
-4.85498031496063
 30
0.0
 10
12.8600157480315
 20
-4.674606299212599
 30
0.0
 10
12.68692519685039
 20
-4.491007874015748
 30
0.0
 10
12.53272047244094
 20
-4.367673228346456
 30
0.0
 10
12.50145669291339
 20
-4.342665354330709
 30
0.0
 10
12.45312992125984
 20
-4.322307086614173
 30
0.0
 10
12.455
 20
-4.272181102362205
 30
0.0
 10
12.52645669291339
 20
-4.237307086614173
 30
0.0
 10
12.62114566929134
 20
-4.253877952755905
 30
0.0
 10
12.74545669291339
 20
-4.152826771653543
 30
0.0
 10
13.02346062992126
 20
-3.926834645669291
 30
0.0
 10
13.08196850393701
 20
-3.609543307086614
 30
0.0
 10
12.85537795275591
 20
-3.320393700787402
 30
0.0
 10
12.78725196850394
 20
-3.233452755905512
 30
0.0
 10
12.74029133858268
 20
-3.173992125984252
 30
0.0
 10
12.66340551181102
 20
-3.112086614173228
 30
0.0
 10
12.5169842519685
 20
-2.994192913385827
 30
0.0
 10
12.61618897637795
 20
-3.038937007874016
 30
0.0
 10
12.61947637795276
 20
-2.857586614173228
 30
0.0
 10
12.62724015748032
 20
-2.429173228346457
 30
0.0
 10
12.39934251968504
 20
-2.414366141732283
 30
0.0
 10
12.46144094488189
 20
-2.342287401574803
 30
0.0
 10
12.48305511811024
 20
-2.330874015748031
 30
0.0
 10
12.55794881889764
 20
-2.324633858267716
 30
0.0
 10
12.59344094488189
 20
-2.312677165354331
 30
0.0
 10
12.62737795275591
 20
-2.301240157480315
 30
0.0
 10
12.67232283464567
 20
-2.287271653543307
 30
0.0
 10
12.70311417322835
 20
-2.270507874015748
 30
0.0
 10
12.8482125984252
 20
-2.191503937007874
 30
0.0
 10
12.77736614173228
 20
-2.231393700787402
 30
0.0
 10
12.8921062992126
 20
-2.144295275590551
 30
0.0
 10
12.94572047244094
 20
-2.10359842519685
 30
0.0
 10
12.98890551181102
 20
-2.033622047244095
 30
0.0
 10
13.0239094488189
 20
-1.961456692913386
 30
0.0
 10
13.10025196850394
 20
-1.804070866141732
 30
0.0
 10
12.96277559055118
 20
-1.631358267716535
 30
0.0
 10
12.872
 20
-1.520866141732284
 30
0.0
 10
12.77524015748032
 20
-1.403094488188976
 30
0.0
 10
12.60027559055118
 20
-1.217291338582677
 30
0.0
 10
12.48264173228347
 20
-1.118724409448819
 30
0.0
 10
12.38427165354331
 20
-1.036303149606299
 30
0.0
 10
12.42002755905512
 20
-1.043925196850394
 30
0.0
 10
12.4695
 20
-0.9495629921259843
 30
0.0
 10
12.5128937007874
 20
-0.8667952755905511
 30
0.0
 10
12.54393700787402
 20
-0.7741496062992126
 30
0.0
 10
12.54787007874016
 20
-0.6738700787401575
 30
0.0
 10
12.55922834645669
 20
-0.3841456692913386
 30
0.0
 10
12.42577559055118
 20
-0.3450236220472441
 30
0.0
 10
12.47252362204724
 20
-0.2950433070866142
 30
0.0
 10
12.49733070866142
 20
-0.2685275590551181
 30
0.0
 10
12.59387007874016
 20
-0.2942125984251969
 30
0.0
 10
12.71434645669291
 20
-0.2405984251968504
 30
0.0
 10
13.13516141732283
 20
-0.0533267716535433
 30
0.0
 10
13.13078346456693
 20
0.3651023622047244
 30
0.0
 10
12.99287795275591
 20
0.7556102362204724
 30
0.0
 10
12.94257874015748
 20
0.8980511811023622
 30
0.0
 10
12.86798031496063
 20
0.9997204724409449
 30
0.0
 10
12.78033858267717
 20
1.114625984251969
 30
0.0
 10
12.78033858267717
 20
1.114625984251969
 30
0.0
 10
12.59314960629921
 20
1.366086614173228
 30
0.0
 10
12.59314960629921
 20
1.366086614173228
 30
0.0
 10
12.5726062992126
 20
1.390811023622047
 30
0.0
 10
12.55737007874016
 20
1.424263779527559
 30
0.0
 10
12.53704724409449
 20
1.452838582677165
 30
0.0
 10
12.46154724409449
 20
1.558984251968504
 30
0.0
 10
12.38494094488189
 20
1.688472440944882
 30
0.0
 10
12.33945275590551
 20
1.828472440944882
 30
0.0
 10
12.27961023622047
 20
2.012629921259843
 30
0.0
 10
12.2743031496063
 20
2.132826771653543
 30
0.0
 10
12.28277559055118
 20
2.348972440944882
 30
0.0
 10
12.28803937007874
 20
2.483393700787401
 30
0.0
 10
12.31030708661417
 20
2.737834645669291
 30
0.0
 10
12.37241732283464
 20
2.825850393700787
 30
0.0
 10
12.44319291338583
 20
2.836370078740158
 30
0.0
 10
12.48393307086614
 20
2.804129921259843
 30
0.0
 10
12.54204724409449
 20
2.783287401574803
 30
0.0
 10
12.62968110236221
 20
2.751862204724409
 30
0.0
 10
12.61412598425197
 20
2.765232283464567
 30
0.0
 10
12.65532677165354
 20
2.686854330708661
 30
0.0
 10
12.71817716535433
 20
2.567291338582677
 30
0.0
 10
12.74618897637795
 20
2.526515748031496
 30
0.0
 10
12.83191732283465
 20
2.45307874015748
 30
0.0
 10
12.99055905511811
 20
2.317177165354331
 30
0.0
 10
13.22528346456693
 20
2.257996062992126
 30
0.0
 10
13.47562204724409
 20
2.354574803149606
 30
0.0
 10
13.63553149606299
 20
2.416267716535433
 30
0.0
 10
13.80234645669291
 20
2.519570866141732
 30
0.0
 10
13.91328346456693
 20
2.650877952755906
 30
0.0
 10
13.98140551181102
 20
2.731507874015748
 30
0.0
 10
14.08575196850394
 20
2.844905511811024
 30
0.0
 10
14.12637795275591
 20
2.95207874015748
 30
0.0
 10
14.1488031496063
 20
3.011228346456693
 30
0.0
 10
14.21894488188976
 20
3.220614173228347
 30
0.0
 10
14.18804330708661
 20
3.283814960629921
 30
0.0
 10
14.17392519685039
 20
3.301114173228346
 30
0.0
 10
14.13847244094488
 20
3.297330708661417
 30
0.0
 10
14.1202125984252
 20
3.297251968503937
 30
0.0
 10
13.98292519685039
 20
3.296629921259842
 30
0.0
 10
13.84830708661417
 20
3.345523622047244
 30
0.0
 10
13.71993307086614
 20
3.380614173228346
 30
0.0
 10
13.34387795275591
 20
3.483413385826772
 30
0.0
 10
12.94724803149606
 20
3.585791338582677
 30
0.0
 10
12.71901181102362
 20
3.187185039370079
 30
0.0
 10
12.69221653543307
 20
3.140385826771654
 30
0.0
 10
12.65299606299213
 20
3.036677165354331
 30
0.0
 10
12.62588582677165
 20
3.003952755905512
 30
0.0
 10
12.5638031496063
 20
2.993330708661417
 30
0.0
 10
12.48270078740157
 20
3.019984251968504
 30
0.0
 10
12.44409448818898
 20
3.046681102362205
 30
0.0
 10
12.44104330708661
 20
3.126972440944882
 30
0.0
 10
12.54645669291339
 20
3.348488188976378
 30
0.0
 10
12.57994094488189
 20
3.421295275590551
 30
0.0
 10
12.80417322834646
 20
3.908822834645669
 30
0.0
 10
12.7053188976378
 20
3.748023622047244
 30
0.0
 10
12.91668897637795
 20
3.674208661417323
 30
0.0
 10
13.31762992125984
 20
3.534185039370079
 30
0.0
 10
13.77754330708661
 20
3.651350393700787
 30
0.0
 10
14.0415157480315
 20
3.972263779527559
 30
0.0
 10
14.08293307086614
 20
4.022618110236221
 30
0.0
 10
14.10616535433071
 20
4.060484251968504
 30
0.0
 10
14.14295669291339
 20
4.118330708661417
 30
0.0
 10
14.32936220472441
 20
4.41138188976378
 30
0.0
 10
14.37086614173228
 20
5.070968503937008
 30
0.0
 10
14.35230708661417
 20
5.448220472440945
 30
0.0
 10
14.34761023622047
 20
5.543629921259843
 30
0.0
 10
14.32644881889764
 20
5.80246062992126
 30
0.0
 10
14.29448818897638
 20
5.898685039370079
 30
0.0
 10
14.24248031496063
 20
5.899649606299213
 30
0.0
 10
14.18326771653543
 20
5.855834645669291
 30
0.0
 10
14.13850393700787
 20
5.829716535433071
 30
0.0
 10
14.08795669291339
 20
5.800220472440945
 30
0.0
 10
14.0476968503937
 20
5.79094094488189
 30
0.0
 10
13.98985433070866
 20
5.768897637795275
 30
0.0
 10
13.93483858267717
 20
5.747933070866142
 30
0.0
 10
13.89131496062992
 20
5.724283464566929
 30
0.0
 10
13.82802755905512
 20
5.709555118110236
 30
0.0
 10
13.75511023622047
 20
5.692586614173228
 30
0.0
 10
13.73549606299213
 20
5.689283464566929
 30
0.0
 10
13.66738188976378
 20
5.662251968503937
 30
0.0
 10
13.5671968503937
 20
5.622492125984252
 30
0.0
 10
13.43439763779527
 20
5.605255905511811
 30
0.0
 10
13.32926771653543
 20
5.570661417322834
 30
0.0
 10
13.27444094488189
 20
5.552614173228346
 30
0.0
 10
13.21606692913386
 20
5.5425
 30
0.0
 10
13.17081102362205
 20
5.519232283464567
 30
0.0
 10
13.11706299212598
 20
5.491602362204724
 30
0.0
 10
13.08407874015748
 20
5.456720472440945
 30
0.0
 10
13.02772440944882
 20
5.49948031496063
 30
0.0
 10
13.01163385826772
 20
5.658948818897638
 30
0.0
 10
13.10105118110236
 20
6.213992125984252
 30
0.0
 10
13.0183031496063
 20
6.520267716535433
 30
0.0
 10
13.00214173228346
 20
6.580078740157481
 30
0.0
 10
12.90844881889764
 20
6.726385826771653
 30
0.0
 10
12.92785433070866
 20
6.771807086614174
 30
0.0
 10
12.98294488188976
 20
6.805248031496063
 30
0.0
 10
13.10494881889764
 20
6.772188976377953
 30
0.0
 10
13.17572440944882
 20
6.771279527559055
 30
0.0
 10
13.21916929133858
 20
6.770724409448819
 30
0.0
 10
13.26727165354331
 20
6.77255905511811
 30
0.0
 10
13.30930708661417
 20
6.77107874015748
 30
0.0
 10
13.35088976377953
 20
6.769610236220473
 30
0.0
 10
13.3825157480315
 20
6.758448818897638
 30
0.0
 10
13.42403937007874
 20
6.75596062992126
 30
0.0
 10
13.51111811023622
 20
6.750751968503937
 30
0.0
 10
13.58426771653543
 20
6.774161417322834
 30
0.0
 10
13.68137007874016
 20
6.763858267716535
 30
0.0
 10
13.8550157480315
 20
6.745429133858268
 30
0.0
 10
14.19962204724409
 20
6.843204724409449
 30
0.0
 10
14.41587795275591
 20
6.835586614173228
 30
0.0
 10
14.50284251968504
 20
6.832527559055118
 30
0.0
 10
14.57717716535433
 20
6.810669291338582
 30
0.0
 10
14.6122874015748
 20
6.759716535433071
 30
0.0
 10
14.64336220472441
 20
6.714622047244094
 30
0.0
 10
14.68527952755906
 20
6.632082677165354
 30
0.0
 10
14.76042519685039
 20
6.656275590551181
 30
0.0
 10
14.7846811023622
 20
6.668685039370079
 30
0.0
 10
14.79525196850394
 20
6.720763779527559
 30
0.0
 10
14.80153149606299
 20
6.748586614173228
 30
0.0
 10
14.80982677165354
 20
6.785366141732283
 30
0.0
 10
14.80020472440945
 20
6.834625984251969
 30
0.0
 10
14.79398031496063
 20
6.867673228346456
 30
0.0
 10
14.76672834645669
 20
7.012358267716535
 30
0.0
 10
14.71714566929134
 20
7.116157480314961
 30
0.0
 10
14.59418897637795
 20
7.199318897637795
 30
0.0
 10
14.49750787401575
 20
7.264708661417322
 30
0.0
 10
14.35677952755906
 20
7.346086614173228
 30
0.0
 10
14.23203149606299
 20
7.36048031496063
 30
0.0
 10
14.05782283464567
 20
7.380586614173228
 30
0.0
 10
13.96235039370079
 20
7.380011811023622
 30
0.0
 10
13.81444881889764
 20
7.478354330708662
 30
0.0
 10
13.76468110236221
 20
7.511444881889764
 30
0.0
 10
13.70100393700787
 20
7.54403937007874
 30
0.0
 10
13.6490905511811
 20
7.570125984251969
 30
0.0
 10
13.65082677165354
 20
7.639622047244094
 30
0.0
 10
13.7258188976378
 20
7.70763779527559
 30
0.0
 10
13.74694488188976
 20
7.794948818897637
 30
0.0
 10
13.76163779527559
 20
7.855661417322835
 30
0.0
 10
13.76279133858268
 20
8.025413385826772
 30
0.0
 10
13.79712598425197
 20
8.060086614173228
 30
0.0
 10
13.82943307086614
 20
8.083299212598424
 30
0.0
 10
13.94800393700787
 20
8.095787401574803
 30
0.0
 10
13.99677165354331
 20
8.106885826771654
 30
0.0
 10
14.07457086614173
 20
8.124586614173229
 30
0.0
 10
14.11433464566929
 20
8.142925196850394
 30
0.0
 10
14.18342125984252
 20
8.168645669291339
 30
0.0
 10
14.25005905511811
 20
8.193452755905511
 30
0.0
 10
14.29738976377953
 20
8.209740157480315
 30
0.0
 10
14.35940551181102
 20
8.241248031496063
 30
0.0
 10
14.43583858267717
 20
8.28007874015748
 30
0.0
 10
14.57092125984252
 20
8.394267716535433
 30
0.0
 10
14.63526771653543
 20
8.460637795275591
 30
0.0
 10
14.6528937007874
 20
8.478818897637796
 30
0.0
 10
14.72112204724409
 20
8.574314960629922
 30
0.0
 10
14.7367874015748
 20
8.60755905511811
 30
0.0
 10
14.7714094488189
 20
8.681043307086615
 30
0.0
 10
14.76996062992126
 20
8.724566929133859
 30
0.0
 10
14.7874842519685
 20
8.802661417322835
 30
0.0
 10
14.79826771653543
 20
8.85071653543307
 30
0.0
 10
14.87447244094488
 20
8.901413385826771
 30
0.0
 10
14.90728346456693
 20
8.932590551181102
 30
0.0
 10
15.03992913385827
 20
9.058645669291339
 30
0.0
 10
15.04126771653543
 20
9.333610236220473
 30
0.0
 10
14.94046850393701
 20
9.49103937007874
 30
0.0
 10
14.84966535433071
 20
9.632850393700787
 30
0.0
 10
14.76055905511811
 20
9.704755905511812
 30
0.0
 10
14.62070078740157
 20
9.790637795275591
 30
0.0
 10
14.58644881889764
 20
9.811669291338582
 30
0.0
 10
14.57537007874016
 20
9.815161417322834
 30
0.0
 10
14.53648818897638
 20
9.830795275590551
 30
0.0
 10
14.41250787401575
 20
9.880645669291338
 30
0.0
 10
14.56855905511811
 20
10.05499212598425
 30
0.0
 10
14.48223622047244
 20
10.20545275590551
 30
0.0
 10
14.46572047244094
 20
10.23424409448819
 30
0.0
 10
14.45572834645669
 20
10.26370866141732
 30
0.0
 10
14.44082283464567
 20
10.28778346456693
 30
0.0
 10
14.36518503937008
 20
10.40995275590551
 30
0.0
 10
14.24973228346457
 20
10.52403937007874
 30
0.0
 10
14.10490551181102
 20
10.57251968503937
 30
0.0
 10
13.98832677165354
 20
10.61154724409449
 30
0.0
 10
13.92995275590551
 20
10.59287401574803
 30
0.0
 10
13.89475984251968
 20
10.60963385826772
 30
0.0
 10
13.85068897637795
 20
10.63062598425197
 30
0.0
 10
13.77023622047244
 20
10.99241338582677
 30
0.0
 10
13.43261023622047
 20
11.13064566929134
 30
0.0
 10
13.31713385826772
 20
11.17792519685039
 30
0.0
 10
13.16323228346457
 20
11.21235826771654
 30
0.0
 10
13.01334645669291
 20
11.20853543307087
 30
0.0
 10
12.81314173228346
 20
11.20343700787402
 30
0.0
 10
12.79464960629921
 20
11.11366535433071
 30
0.0
 10
12.59903149606299
 20
11.21218897637795
 30
0.0
 10
12.33745275590551
 20
11.34393307086614
 30
0.0
 10
12.12498818897638
 20
11.38817716535433
 30
0.0
 10
11.79473622047244
 20
11.31068897637795
 30
0.0
 10
11.78352755905512
 20
11.30805905511811
 30
0.0
 10
11.61812204724409
 20
11.24975984251969
 30
0.0
 10
11.61095669291339
 20
11.24572834645669
 30
0.0
 10
11.51550787401575
 20
11.19202362204724
 30
0.0
 10
11.40179527559055
 20
11.11212598425197
 30
0.0
 10
11.3341811023622
 20
11.02657480314961
 30
0.0
 10
11.26055905511811
 20
10.93341732283465
 30
0.0
 10
11.26522440944882
 20
10.97002362204724
 30
0.0
 10
11.18800787401575
 20
11.01281889763779
 30
0.0
 10
11.10698031496063
 20
11.05772440944882
 30
0.0
 10
10.88532677165354
 20
11.08663779527559
 30
0.0
 10
10.77179133858268
 20
11.07323228346457
 30
0.0
 10
10.50346850393701
 20
11.04155511811024
 30
0.0
 10
10.25138188976378
 20
10.86691338582677
 30
0.0
 10
10.2976062992126
 20
10.56211023622047
 30
0.0
 10
10.32796850393701
 20
10.36191732283465
 30
0.0
 10
10.22722834645669
 20
10.53820472440945
 30
0.0
 10
10.05962992125984
 20
10.31754724409449
 30
0.0
 10
9.970984251968504
 20
10.20083858267717
 30
0.0
 10
9.949149606299212
 20
10.09031496062992
 30
0.0
 10
9.946401574803149
 20
9.93892125984252
 30
0.0
 10
9.945133858267717
 20
9.869051181102362
 30
0.0
 10
9.986562992125984
 20
9.76573622047244
 30
0.0
 10
9.934023622047244
 20
9.737818897637796
 30
0.0
 10
9.886338582677165
 20
9.712484251968505
 30
0.0
 10
9.832212598425198
 20
9.733031496062992
 30
0.0
 10
9.777220472440945
 20
9.656118110236221
 30
0.0
 10
9.707523622047244
 20
9.558633858267717
 30
0.0
 10
9.69861811023622
 20
9.605625984251969
 30
0.0
 10
9.593153543307087
 20
9.589484251968504
 30
0.0
 10
9.530933070866142
 20
9.57996062992126
 30
0.0
 10
9.462929133858268
 20
9.547385826771654
 30
0.0
 10
9.420476377952756
 20
9.516425196850394
 30
0.0
 10
9.340767716535433
 20
9.458295275590551
 30
0.0
 10
9.240850393700788
 20
9.356059055118111
 30
0.0
 10
9.208724409448818
 20
9.233397637795276
 30
0.0
 10
9.171492125984251
 20
9.091259842519685
 30
0.0
 10
9.166173228346457
 20
8.96401968503937
 30
0.0
 10
9.205267716535433
 20
8.810291338582678
 30
0.0
 10
9.291681102362205
 20
8.4705
 30
0.0
 10
9.59441338582677
 20
8.183181102362205
 30
0.0
 10
9.93861811023622
 20
8.066358267716536
 30
0.0
 10
10.06527165354331
 20
8.023370078740157
 30
0.0
 10
10.1785
 20
7.983507874015748
 30
0.0
 10
10.32387795275591
 20
7.95678346456693
 30
0.0
 10
10.41429527559055
 20
7.940161417322835
 30
0.0
 10
10.44550393700787
 20
7.951834645669291
 30
0.0
 10
10.48664960629921
 20
7.870358267716536
 30
0.0
 10
10.5141811023622
 20
7.815838582677165
 30
0.0
 10
10.56342913385827
 20
7.763397637795276
 30
0.0
 10
10.54389763779528
 20
7.707633858267717
 30
0.0
 10
10.51227559055118
 20
7.686448818897638
 30
0.0
 10
10.47493307086614
 20
7.683220472440945
 30
0.0
 10
10.4419094488189
 20
7.66590157480315
 30
0.0
 10
10.41185039370079
 20
7.65013779527559
 30
0.0
 10
10.37943307086614
 20
7.635122047244095
 30
0.0
 10
10.35337007874016
 20
7.621279527559055
 30
0.0
 10
10.19187007874016
 20
7.535488188976378
 30
0.0
 10
10.01790551181102
 20
7.332
 30
0.0
 10
9.808330708661417
 20
7.350377952755905
 30
0.0
 10
9.72082283464567
 20
7.358055118110236
 30
0.0
 10
9.687330708661417
 20
7.422700787401575
 30
0.0
 10
9.641291338582677
 20
7.463625984251968
 30
0.0
 10
9.572948818897638
 20
7.524370078740158
 30
0.0
 10
9.50992125984252
 20
7.596685039370079
 30
0.0
 10
9.434299212598425
 20
7.657055118110236
 30
0.0
 10
9.37427559055118
 20
7.704972440944882
 30
0.0
 10
9.235263779527559
 20
7.784165354330709
 30
0.0
 10
9.158228346456692
 20
7.785244094488189
 30
0.0
 10
9.11992125984252
 20
7.697685039370079
 30
0.0
 10
9.155125984251969
 20
7.558204724409449
 30
0.0
 10
9.18859842519685
 20
7.487822834645669
 30
0.0
 10
9.30328346456693
 20
7.24671653543307
 30
0.0
 10
9.526366141732284
 20
7.103074803149607
 30
0.0
 10
9.783830708661418
 20
7.02461811023622
 30
0.0
 10
9.829795275590552
 20
7.010610236220472
 30
0.0
 10
9.867358267716535
 20
6.980192913385827
 30
0.0
 10
9.901181102362205
 20
6.960681102362205
 30
0.0
 10
10.02537795275591
 20
6.889043307086614
 30
0.0
 10
10.1254094488189
 20
6.832220472440945
 30
0.0
 10
10.27646062992126
 20
6.801409448818897
 30
0.0
 10
10.64195275590551
 20
6.72686220472441
 30
0.0
 10
10.77924803149606
 20
6.857755905511811
 30
0.0
 10
10.882
 20
6.872224409448819
 30
0.0
 10
10.87490551181102
 20
6.793692913385827
 30
0.0
 10
10.83006299212598
 20
6.76048031496063
 30
0.0
 10
10.80140157480315
 20
6.69667716535433
 30
0.0
 10
10.66549606299213
 20
6.394145669291339
 30
0.0
 10
10.63590157480315
 20
5.988106299212599
 30
0.0
 10
10.7103188976378
 20
5.66236220472441
 30
0.0
 10
10.7304842519685
 20
5.574114173228346
 30
0.0
 10
10.78842519685039
 20
5.354838582677165
 30
0.0
 10
10.83903543307087
 20
5.314177165354331
 30
0.0
 10
10.87392125984252
 20
5.327224409448819
 30
0.0
 10
10.92218503937008
 20
5.483996062992126
 30
0.0
 10
10.96368110236221
 20
5.542551181102362
 30
0.0
 10
11.01977952755906
 20
5.621700787401575
 30
0.0
 10
11.04692519685039
 20
5.658740157480315
 30
0.0
 10
11.13579921259842
 20
5.713929133858268
 30
0.0
 10
11.22426771653543
 20
5.768866141732284
 30
0.0
 10
11.30396062992126
 20
5.782767716535433
 30
0.0
 10
11.37451181102362
 20
5.8185
 30
0.0
 10
11.37451181102362
 20
5.8185
 30
0.0
 10
11.47192125984252
 20
5.892622047244094
 30
0.0
 10
11.47192125984252
 20
5.892622047244094
 30
0.0
 10
11.51263385826772
 20
5.935653543307087
 30
0.0
 10
11.50270866141732
 20
5.971653543307086
 30
0.0
 10
11.57557086614173
 20
5.963964566929134
 30
0.0
 10
11.57557086614173
 20
5.963964566929134
 30
0.0
 10
11.62914960629921
 20
5.648314960629921
 30
0.0
 10
11.62914960629921
 20
5.648314960629921
 30
0.0
 10
11.63133070866142
 20
5.610161417322835
 30
0.0
 10
11.62561023622047
 20
5.573244094488189
 30
0.0
 10
11.6310157480315
 20
5.535051181102363
 30
0.0
 10
11.64068503937008
 20
5.466700787401575
 30
0.0
 10
11.66525196850394
 20
5.408173228346457
 30
0.0
 10
11.67332283464567
 20
5.325405511811024
 30
0.0
 10
11.68017322834646
 20
5.255185039370079
 30
0.0
 10
11.6903937007874
 20
5.188511811023622
 30
0.0
 10
11.69903149606299
 20
5.117318897637795
 30
0.0
 10
11.70681496062992
 20
5.053251968503937
 30
0.0
 10
11.72429133858268
 20
4.954188976377953
 30
0.0
 10
11.7254842519685
 20
4.894799212598425
 30
0.0
 10
11.72750393700787
 20
4.794106299212598
 30
0.0
 10
11.72728346456693
 20
4.78936220472441
 30
0.0
 10
11.74412992125984
 20
4.692606299212598
 30
0.0
 10
11.76816929133858
 20
4.55455905511811
 30
0.0
 10
11.76394881889764
 20
4.393811023622047
 30
0.0
 10
11.77887401574803
 20
4.24996062992126
 30
0.0
 10
11.82638188976378
 20
3.792086614173229
 30
0.0
 10
11.80941338582677
 20
3.300244094488189
 30
0.0
 10
11.80742125984252
 20
2.835236220472441
 30
0.0
 10
11.80699606299213
 20
2.735448818897638
 30
0.0
 10
11.7867874015748
 20
2.583834645669291
 30
0.0
 10
11.79525984251969
 20
2.494653543307086
 30
0.0
 10
11.81364960629921
 20
2.301102362204724
 30
0.0
 10
11.62145669291339
 20
2.528385826771653
 30
0.0
 10
11.54484645669291
 20
2.50898031496063
 30
0.0
 10
11.52324015748031
 20
2.450283464566929
 30
0.0
 10
11.58548818897638
 20
2.171
 30
0.0
 10
11.59920472440945
 20
2.108251968503937
 30
0.0
 10
11.63295275590551
 20
1.953818897637795
 30
0.0
 10
11.67857480314961
 20
1.883212598425197
 30
0.0
 10
11.75115748031496
 20
1.782893700787402
 30
0.0
 10
11.8358031496063
 20
1.665905511811024
 30
0.0
 10
11.98145669291338
 20
1.501606299212598
 30
0.0
 10
12.07986220472441
 20
1.396267716535433
 30
0.0
 10
12.19262992125984
 20
1.275562992125984
 30
0.0
 10
12.29794488188976
 20
1.13344094488189
 30
0.0
 10
12.39671653543307
 20
0.9978267716535433
 30
0.0
 10
12.53735826771654
 20
0.8047244094488188
 30
0.0
 10
12.73237795275591
 20
0.5834685039370079
 30
0.0
 10
12.56199606299213
 20
0.3498858267716535
 30
0.0
 10
12.52676771653543
 20
0.3015905511811023
 30
0.0
 10
12.48826377952756
 20
0.2698897637795276
 30
0.0
 10
12.43692913385827
 20
0.2365157480314961
 30
0.0
 10
12.39727559055118
 20
0.2107362204724409
 30
0.0
 10
12.29329921259843
 20
0.1849448818897638
 30
0.0
 10
12.23803149606299
 20
0.2092322834645669
 30
0.0
 10
12.19192913385827
 20
0.2430866141732284
 30
0.0
 10
12.18146850393701
 20
0.3298110236220472
 30
0.0
 10
12.14967322834646
 20
0.3888070866141732
 30
0.0
 10
12.09155905511811
 20
0.4966338582677166
 30
0.0
 10
12.05088976377953
 20
0.6398661417322835
 30
0.0
 10
11.99011811023622
 20
0.7440354330708662
 30
0.0
 10
11.89009448818898
 20
0.915492125984252
 30
0.0
 10
11.80716535433071
 20
1.065590551181102
 30
0.0
 10
11.67481102362205
 20
1.210606299212598
 30
0.0
 10
11.60525196850394
 20
1.286822834645669
 30
0.0
 10
11.48654724409449
 20
1.379452755905512
 30
0.0
 10
11.37813385826772
 20
1.428992125984252
 30
0.0
 10
11.2865905511811
 20
1.470826771653543
 30
0.0
 10
11.06360236220472
 20
1.539708661417323
 30
0.0
 10
10.94823228346457
 20
1.514681102362205
 30
0.0
 10
10.80509448818898
 20
1.483625984251969
 30
0.0
 10
10.75970472440945
 20
1.339610236220472
 30
0.0
 10
10.76836614173228
 20
1.175948818897638
 30
0.0
 10
10.78253149606299
 20
0.9083740157480314
 30
0.0
 10
10.96176377952756
 20
0.6016614173228346
 30
0.0
 10
11.08384251968504
 20
0.4484842519685039
 30
0.0
 10
11.22965354330709
 20
0.2655314960629921
 30
0.0
 10
11.41108661417323
 20
0.0647125984251968
 30
0.0
 10
11.60292125984252
 20
-0.0720787401574803
 30
0.0
 10
11.69896062992126
 20
-0.1405629921259842
 30
0.0
 10
11.8312125984252
 20
-0.2035866141732283
 30
0.0
 10
11.96064566929134
 20
-0.2385196850393701
 30
0.0
 10
12.08689763779527
 20
-0.2725984251968504
 30
0.0
 10
12.03887401574803
 20
-0.2650157480314961
 30
0.0
 10
12.10586220472441
 20
-0.3514212598425197
 30
0.0
 10
12.18207086614173
 20
-0.4497283464566929
 30
0.0
 10
12.24161023622047
 20
-0.6255866141732284
 30
0.0
 10
12.16192125984252
 20
-0.7372125984251968
 30
0.0
 10
12.08820472440945
 20
-0.8404763779527559
 30
0.0
 10
12.08157086614173
 20
-0.7704251968503937
 30
0.0
 10
11.85739763779528
 20
-0.6284212598425197
 30
0.0
 10
11.1840905511811
 20
-0.2019212598425197
 30
0.0
 10
10.74498818897638
 20
-0.3058031496062992
 30
0.0
 10
11.05853937007874
 20
-0.6258661417322835
 30
0.0
 10
11.14350787401575
 20
-0.7125984251968503
 30
0.0
 10
11.23670866141732
 20
-0.7884842519685039
 30
0.0
 10
11.33596850393701
 20
-0.8633622047244095
 30
0.0
 10
11.33596850393701
 20
-0.8633622047244095
 30
0.0
 10
11.48727165354331
 20
-0.9697716535433071
 30
0.0
 10
11.48727165354331
 20
-0.9697716535433071
 30
0.0
 10
11.70154330708661
 20
-1.121700787401575
 30
0.0
 10
11.81049212598425
 20
-1.124657480314961
 30
0.0
 10
12.0514842519685
 20
-1.18644094488189
 30
0.0
 10
12.12865748031496
 20
-1.206228346456693
 30
0.0
 10
12.5048031496063
 20
-1.656633858267716
 30
0.0
 10
12.54669291338583
 20
-1.731208661417323
 30
0.0
 10
12.5876062992126
 20
-1.804043307086614
 30
0.0
 10
12.6241968503937
 20
-1.835161417322835
 30
0.0
 10
12.5661811023622
 20
-1.913933070866142
 30
0.0
 10
12.4731062992126
 20
-2.040299212598425
 30
0.0
 10
12.30218897637795
 20
-1.983610236220472
 30
0.0
 10
12.15840551181102
 20
-1.948362204724409
 30
0.0
 10
12.0301220472441
 20
-1.916913385826772
 30
0.0
 10
12.0656062992126
 20
-1.943129921259843
 30
0.0
 10
11.98802755905512
 20
-1.861129921259842
 30
0.0
 10
11.78383858267716
 20
-1.645314960629921
 30
0.0
 10
11.61740551181102
 20
-1.464846456692913
 30
0.0
 10
11.34461417322835
 20
-1.331027559055118
 30
0.0
 10
11.13416141732283
 20
-1.227787401574803
 30
0.0
 10
11.0345157480315
 20
-1.158976377952756
 30
0.0
 10
10.98096456692913
 20
-1.443212598425197
 30
0.0
 10
10.93393700787402
 20
-1.692779527559055
 30
0.0
 10
11.2638031496063
 20
-1.890570866141732
 30
0.0
 10
11.43015354330709
 20
-2.01805905511811
 30
0.0
 10
11.57732283464567
 20
-2.130846456692913
 30
0.0
 10
11.74895275590551
 20
-2.239649606299213
 30
0.0
 10
11.93495275590551
 20
-2.295712598425197
 30
0.0
 10
12.04214566929134
 20
-2.32801968503937
 30
0.0
 10
12.03294094488189
 20
-2.311240157480315
 30
0.0
 10
12.08893307086614
 20
-2.399287401574803
 30
0.0
 10
12.10160236220472
 20
-2.419204724409449
 30
0.0
 10
12.10141732283465
 20
-2.424027559055118
 30
0.0
 10
12.11433070866142
 20
-2.440503937007874
 30
0.0
 10
12.17955905511811
 20
-2.523732283464567
 30
0.0
 10
12.2613937007874
 20
-2.672003937007874
 30
0.0
 10
12.20043700787402
 20
-2.778216535433071
 30
0.0
 10
12.15887401574803
 20
-2.788299212598425
 30
0.0
 10
12.15724803149606
 20
-2.780633858267716
 30
0.0
 10
12.12747637795276
 20
-2.760653543307086
 30
0.0
 10
11.99209448818898
 20
-2.669791338582677
 30
0.0
 10
11.80531496062992
 20
-2.60707874015748
 30
0.0
 10
11.65048818897638
 20
-2.570562992125984
 30
0.0
 10
11.53543700787402
 20
-2.543429133858268
 30
0.0
 10
11.43956299212598
 20
-2.527393700787401
 30
0.0
 10
11.31429133858268
 20
-2.540015748031496
 30
0.0
 10
11.1305
 20
-2.55853937007874
 30
0.0
 10
11.18130708661417
 20
-2.628681102362205
 30
0.0
 10
11.11757480314961
 20
-2.723354330708661
 30
0.0
 10
11.03362598425197
 20
-2.725433070866142
 30
0.0
 10
11.04806692913386
 20
-2.658826771653543
 30
0.0
 10
10.9544094488189
 20
-2.66796062992126
 30
0.0
 10
10.90311023622047
 20
-2.67296062992126
 30
0.0
 10
10.86142519685039
 20
-2.722996062992126
 30
0.0
 10
10.84425590551181
 20
-2.766917322834646
 30
0.0
 10
10.71755905511811
 20
-3.091027559055118
 30
0.0
 10
10.95938976377953
 20
-3.470665354330709
 30
0.0
 10
11.13579921259842
 20
-3.694677165354331
 30
0.0
 10
11.27504724409449
 20
-3.871496062992126
 30
0.0
 10
11.61126771653543
 20
-4.165492125984252
 30
0.0
 10
11.86220472440945
 20
-4.257047244094488
 30
0.0
 10
11.92487007874016
 20
-4.279909448818898
 30
0.0
 10
11.97755905511811
 20
-4.272850393700788
 30
0.0
 10
12.02265748031496
 20
-4.314937007874016
 30
0.0
 10
12.0597125984252
 20
-4.349515748031496
 30
0.0
 10
12.08758661417323
 20
-4.382275590551181
 30
0.0
 10
12.12759448818898
 20
-4.420086614173228
 30
0.0
 10
12.12759448818898
 20
-4.420086614173228
 30
0.0
 10
12.28951181102362
 20
-4.582181102362204
 30
0.0
 10
12.28951181102362
 20
-4.582181102362204
 30
0.0
 10
12.30869291338583
 20
-4.604811023622047
 30
0.0
 10
12.31427952755906
 20
-4.617905511811023
 30
0.0
 10
12.33633070866142
 20
-4.640484251968504
 30
0.0
 10
12.39864173228347
 20
-4.704299212598425
 30
0.0
 10
12.47844488188976
 20
-4.803448818897638
 30
0.0
 10
12.52337007874016
 20
-4.882708661417323
 30
0.0
 10
12.65579133858268
 20
-5.116350393700787
 30
0.0
 10
12.44311811023622
 20
-5.309472440944882
 30
0.0
 10
12.20337007874016
 20
-5.337633858267717
 30
0.0
 10
12.1413937007874
 20
-5.344913385826771
 30
0.0
 10
12.06974803149606
 20
-5.345177165354331
 30
0.0
 10
12.0113031496063
 20
-5.329326771653544
 30
0.0
 10
11.93489763779528
 20
-5.308610236220472
 30
0.0
 10
11.84577559055118
 20
-5.167216535433071
 30
0.0
 10
11.79211811023622
 20
-5.117822834645669
 30
0.0
 10
11.79211811023622
 20
-5.117822834645669
 30
0.0
 10
11.4534094488189
 20
-4.817452755905512
 30
0.0
 10
11.4534094488189
 20
-4.817452755905512
 30
0.0
 10
11.29307480314961
 20
-4.6875
 30
0.0
 10
11.13196456692913
 20
-4.575141732283464
 30
0.0
 10
10.96196456692913
 20
-4.460370078740158
 30
0.0
 10
10.91825590551181
 20
-4.430866141732284
 30
0.0
 10
10.88187007874016
 20
-4.403578740157481
 30
0.0
 10
10.82638188976378
 20
-4.375606299212598
 30
0.0
 10
10.47253937007874
 20
-4.197240157480315
 30
0.0
 10
10.15296850393701
 20
-4.013425196850394
 30
0.0
 10
9.746015748031496
 20
-3.958748031496063
 30
0.0
 10
9.591492125984251
 20
-3.937988188976378
 30
0.0
 10
9.260314960629922
 20
-3.900208661417323
 30
0.0
 10
9.333704724409449
 20
-4.142161417322835
 30
0.0
 10
9.373003937007875
 20
-4.271712598425196
 30
0.0
 10
9.510031496062991
 20
-4.415157480314961
 30
0.0
 10
9.59990157480315
 20
-4.506055118110236
 30
0.0
 10
9.8273031496063
 20
-4.73603937007874
 30
0.0
 10
10.31847637795276
 20
-5.093244094488189
 30
0.0
 10
10.60098031496063
 20
-5.221665354330709
 30
0.0
 10
10.62823228346457
 20
-5.234055118110236
 30
0.0
 10
10.64681496062992
 20
-5.25005905511811
 30
0.0
 10
10.67299606299213
 20
-5.263472440944882
 30
0.0
 10
10.83925984251968
 20
-5.348661417322835
 30
0.0
 10
11.00027165354331
 20
-5.431287401574803
 30
0.0
 10
11.17648818897638
 20
-5.50453937007874
 30
0.0
 10
11.28174803149606
 20
-5.5483031496063
 30
0.0
 10
11.38555511811024
 20
-5.583665354330709
 30
0.0
 10
11.48733070866142
 20
-5.62209842519685
 30
0.0
 10
11.56515354330709
 20
-5.651488188976378
 30
0.0
 10
11.7478031496063
 20
-5.691846456692914
 30
0.0
 10
11.7998031496063
 20
-5.729417322834646
 30
0.0
 10
11.81046850393701
 20
-5.851877952755905
 30
0.0
 10
11.79972834645669
 20
-7.031830708661417
 30
0.0
 10
11.79972834645669
 20
-7.262362204724409
 30
0.0
 10
11.79972834645669
 20
-7.339192913385827
 30
0.0
 10
11.81553937007874
 20
-7.692
 30
0.0
 10
11.79018897637795
 20
-7.735692913385827
 30
0.0
 10
11.72711811023622
 20
-7.741295275590551
 30
0.0
 10
11.71969291338583
 20
-7.707811023622047
 30
0.0
 10
11.66791338582677
 20
-7.683767716535433
 30
0.0
 10
11.57315748031496
 20
-7.639767716535433
 30
0.0
 10
11.51174015748031
 20
-7.605547244094488
 30
0.0
 10
11.40918897637795
 20
-7.577574803149607
 30
0.0
 10
10.98064960629921
 20
-7.460665354330708
 30
0.0
 10
10.47568503937008
 20
-7.506385826771654
 30
0.0
 10
10.11820472440945
 20
-7.781212598425197
 30
0.0
 10
9.872444881889765
 20
-7.970149606299213
 30
0.0
 10
9.764885826771653
 20
-8.12923622047244
 30
0.0
 10
9.647318897637795
 20
-8.388291338582677
 30
0.0
 10
9.518318897637796
 20
-8.672547244094488
 30
0.0
 10
9.489307086614174
 20
-8.981933070866141
 30
0.0
 10
9.504783464566929
 20
-9.303122047244095
 30
0.0
 10
9.516917322834646
 20
-9.554893700787401
 30
0.0
 10
9.63901968503937
 20
-9.92878346456693
 30
0.0
 10
9.740472440944881
 20
-10.15218503937008
 30
0.0
  0
ENDSEC
  0
SECTION
  2
OBJECTS
  0
DICTIONARY
  5
C
330
0
100
AcDbDictionary
281
     1
  3
ACAD_DETAILVIEWSTYLE
350
BD
  3
ACAD_GROUP
350
D
  3
ACAD_LAYOUT
350
1A
  3
ACAD_MATERIAL
350
43
  3
ACAD_MLEADERSTYLE
350
5B
  3
ACAD_MLINESTYLE
350
17
  3
ACAD_PLOTSETTINGS
350
19
  3
ACAD_PLOTSTYLENAME
350
E
  3
ACAD_SCALELIST
350
47
  3
ACAD_SECTIONVIEWSTYLE
350
BE
  3
ACAD_TABLESTYLE
350
59
  3
ACAD_VISUALSTYLE
350
2A
  3
ACDB_RECOMPOSE_DATA
350
BA
  3
AcDbVariableDictionary
350
82
  0
SUN
  5
5D
330
29
100
AcDbSun
 90
        1
290
     0
 63
     7
421
 16777215
 40
1.0
291
     1
 91
  2455826
 92
 54000000
292
     0
 70
     2
 71
   256
280
     1
  0
DICTIONARY
  5
BD
102
{ACAD_REACTORS
330
C
102
}
330
C
100
AcDbDictionary
281
     1
  0
DICTIONARY
  5
D
102
{ACAD_REACTORS
330
C
102
}
330
C
100
AcDbDictionary
281
     1
  0
DICTIONARY
  5
1A
102
{ACAD_REACTORS
330
C
102
}
330
C
100
AcDbDictionary
281
     1
  3
Layout1
350
1E
  3
Layout2
350
26
  3
Model
350
22
  0
DICTIONARY
  5
43
102
{ACAD_REACTORS
330
C
102
}
330
C
100
AcDbDictionary
281
     1
  3
ByBlock
350
45
  3
ByLayer
350
44
  3
Global
350
46
  0
DICTIONARY
  5
5B
102
{ACAD_REACTORS
330
C
102
}
330
C
100
AcDbDictionary
281
     1
  3
Standard
350
5C
  0
DICTIONARY
  5
17
102
{ACAD_REACTORS
330
C
102
}
330
C
100
AcDbDictionary
281
     1
  3
Standard
350
18
  0
DICTIONARY
  5
19
102
{ACAD_REACTORS
330
C
102
}
330
C
100
AcDbDictionary
281
     1
  0
ACDBDICTIONARYWDFLT
  5
E
102
{ACAD_REACTORS
330
C
102
}
330
C
100
AcDbDictionary
281
     1
  3
Normal
350
F
100
AcDbDictionaryWithDefault
340
F
  0
DICTIONARY
  5
47
102
{ACAD_REACTORS
330
C
102
}
330
C
100
AcDbDictionary
281
     1
  3
A0
350
48
  3
A1
350
49
  3
A2
350
4A
  3
A3
350
4B
  3
A4
350
4C
  3
A5
350
4D
  3
A6
350
4E
  3
A7
350
4F
  3
A8
350
50
  3
A9
350
51
  3
B1
350
52
  3
B2
350
53
  3
B3
350
54
  3
B4
350
55
  3
B5
350
56
  3
B6
350
57
  3
B7
350
58
  0
DICTIONARY
  5
BE
102
{ACAD_REACTORS
330
C
102
}
330
C
100
AcDbDictionary
281
     1
  0
DICTIONARY
  5
59
102
{ACAD_REACTORS
330
C
102
}
330
C
100
AcDbDictionary
281
     1
  3
Standard
350
5A
  0
DICTIONARY
  5
2A
102
{ACAD_REACTORS
330
C
102
}
330
C
100
AcDbDictionary
281
     1
  3
2dWireframe
350
2F
  3
Basic
350
32
  3
Brighten
350
36
  3
ColorChange
350
3A
  3
Conceptual
350
34
  3
Dim
350
35
  3
EdgeColorOff
350
3D
  3
Facepattern
350
39
  3
Flat
350
2B
  3
FlatWithEdges
350
2C
  3
Gouraud
350
2D
  3
GouraudWithEdges
350
2E
  3
Hidden
350
31
  3
JitterOff
350
3B
  3
Linepattern
350
38
  3
OverhangOff
350
3C
  3
Realistic
350
33
  3
Shaded
350
42
  3
Shaded with edges
350
41
  3
Shades of Gray
350
3E
  3
Sketchy
350
3F
  3
Thicken
350
37
  3
Wireframe
350
30
  3
X-Ray
350
40
  0
XRECORD
  5
BA
102
{ACAD_REACTORS
330
C
102
}
330
C
100
AcDbXrecord
280
     1
 90
        1
330
5A
  0
DICTIONARY
  5
82
102
{ACAD_REACTORS
330
C
102
}
330
C
100
AcDbDictionary
281
     1
  3
CANNOSCALE
350
83
  3
CMLEADERSTYLE
350
BC
  3
CTABLESTYLE
350
BB
  3
XCLIPFRAME
350
84
  0
LAYOUT
  5
1E
102
{ACAD_REACTORS
330
1A
102
}
330
1A
100
AcDbPlotSettings
  1

  2
none_device
  4

  6

 40
0.0
 41
0.0
 42
0.0
 43
0.0
 44
0.0
 45
0.0
 46
0.0
 47
0.0
 48
0.0
 49
0.0
140
0.0
141
0.0
142
1.0
143
1.0
 70
   688
 72
     0
 73
     0
 74
     5
  7

 75
    16
 76
     0
 77
     2
 78
   300
147
1.0
148
0.0
149
0.0
100
AcDbLayout
  1
Layout1
 70
     1
 71
     1
 10
0.0
 20
0.0
 11
12.0
 21
9.0
 12
0.0
 22
0.0
 32
0.0
 14
1.000000000000000E+20
 24
1.000000000000000E+20
 34
1.000000000000000E+20
 15
-1.000000000000000E+20
 25
-1.000000000000000E+20
 35
-1.000000000000000E+20
146
0.0
 13
0.0
 23
0.0
 33
0.0
 16
1.0
 26
0.0
 36
0.0
 17
0.0
 27
1.0
 37
0.0
 76
     0
330
1B
  0
LAYOUT
  5
26
102
{ACAD_REACTORS
330
1A
102
}
330
1A
100
AcDbPlotSettings
  1

  2
none_device
  4

  6

 40
0.0
 41
0.0
 42
0.0
 43
0.0
 44
0.0
 45
0.0
 46
0.0
 47
0.0
 48
0.0
 49
0.0
140
0.0
141
0.0
142
1.0
143
1.0
 70
   688
 72
     0
 73
     0
 74
     5
  7

 75
    16
 76
     0
 77
     2
 78
   300
147
1.0
148
0.0
149
0.0
100
AcDbLayout
  1
Layout2
 70
     1
 71
     2
 10
0.0
 20
0.0
 11
0.0
 21
0.0
 12
0.0
 22
0.0
 32
0.0
 14
0.0
 24
0.0
 34
0.0
 15
0.0
 25
0.0
 35
0.0
146
0.0
 13
0.0
 23
0.0
 33
0.0
 16
1.0
 26
0.0
 36
0.0
 17
0.0
 27
1.0
 37
0.0
 76
     0
330
23
  0
LAYOUT
  5
22
102
{ACAD_REACTORS
330
1A
102
}
330
1A
100
AcDbPlotSettings
  1

  2
none_device
  4
Letter_(8.50_x_11.00_Inches)
  6

 40
6.35
 41
6.35
 42
6.35000508
 43
6.35000508
 44
215.9
 45
279.4
 46
0.0
 47
0.0
 48
0.0
 49
0.0
140
0.0
141
0.0
142
1.0
143
1.0
 70
  1712
 72
     0
 73
     0
 74
     0
  7

 75
     0
 76
     0
 77
     2
 78
   300
147
1.0
148
0.0
149
0.0
100
AcDbLayout
  1
Model
 70
     1
 71
     0
 10
0.0
 20
0.0
 11
12.0
 21
9.0
 12
0.0
 22
0.0
 32
0.0
 14
9.140055118110237
 24
-13.04853543307087
 34
0.0
 15
15.01338582677165
 25
11.35033464566929
 35
0.0
146
0.0
 13
0.0
 23
0.0
 33
0.0
 16
1.0
 26
0.0
 36
0.0
 17
0.0
 27
1.0
 37
0.0
 76
     0
330
1F
331
29
  0
MATERIAL
  5
45
102
{ACAD_REACTORS
330
43
102
}
330
43
100
AcDbMaterial
  1
ByBlock
 72
     1
 94
      127
  0
MATERIAL
  5
44
102
{ACAD_REACTORS
330
43
102
}
330
43
100
AcDbMaterial
  1
ByLayer
 72
     1
 94
      127
  0
MATERIAL
  5
46
102
{ACAD_REACTORS
330
43
102
}
330
43
100
AcDbMaterial
  1
Global
 72
     1
 94
      127
  0
MLEADERSTYLE
  5
5C
102
{ACAD_REACTORS
330
5B
102
}
102
{ACAD_XDICTIONARY
360
B8
102
}
330
5B
100
AcDbMLeaderStyle
170
     2
171
     1
172
     0
 90
        2
 40
0.0
 41
0.0
173
     1
 91
-1056964608
340
14
 92
       -2
290
     1
 42
0.09
291
     1
 43
0.36
  3
Standard
341
0
 44
0.18
300

342
11
174
     1
178
     6
175
     1
176
     0
 93
-1056964608
 45
0.18
292
     0
297
     0
 46
0.18
343
0
 94
-1056964608
 47
1.0
 49
1.0
140
1.0
293
     1
141
0.0
294
     1
177
     0
142
1.0
295
     0
296
     0
143
0.125
1001
ACAD_MLEADERVER
1070
     2
  0
MLINESTYLE
  5
18
102
{ACAD_REACTORS
330
17
102
}
330
17
100
AcDbMlineStyle
  2
Standard
 70
     0
  3

 62
   256
 51
90.0
 52
90.0
 71
     2
 49
0.5
 62
   256
  6
BYLAYER
 49
-0.5
 62
   256
  6
BYLAYER
  0
ACDBPLACEHOLDER
  5
F
102
{ACAD_REACTORS
330
E
102
}
330
E
  0
SCALE
  5
48
102
{ACAD_REACTORS
330
47
102
}
330
47
100
AcDbScale
 70
     0
300
1:1
140
1.0
141
1.0
290
     1
  0
SCALE
  5
49
102
{ACAD_REACTORS
330
47
102
}
330
47
100
AcDbScale
 70
     0
300
1/128" = 1'-0"
140
0.0078125
141
12.0
290
     0
  0
SCALE
  5
4A
102
{ACAD_REACTORS
330
47
102
}
330
47
100
AcDbScale
 70
     0
300
1/64" = 1'-0"
140
0.015625
141
12.0
290
     0
  0
SCALE
  5
4B
102
{ACAD_REACTORS
330
47
102
}
330
47
100
AcDbScale
 70
     0
300
1/32" = 1'-0"
140
0.03125
141
12.0
290
     0
  0
SCALE
  5
4C
102
{ACAD_REACTORS
330
47
102
}
330
47
100
AcDbScale
 70
     0
300
1/16" = 1'-0"
140
0.0625
141
12.0
290
     0
  0
SCALE
  5
4D
102
{ACAD_REACTORS
330
47
102
}
330
47
100
AcDbScale
 70
     0
300
3/32" = 1'-0"
140
0.09375
141
12.0
290
     0
  0
SCALE
  5
4E
102
{ACAD_REACTORS
330
47
102
}
330
47
100
AcDbScale
 70
     0
300
1/8" = 1'-0"
140
0.125
141
12.0
290
     0
  0
SCALE
  5
4F
102
{ACAD_REACTORS
330
47
102
}
330
47
100
AcDbScale
 70
     0
300
3/16" = 1'-0"
140
0.1875
141
12.0
290
     0
  0
SCALE
  5
50
102
{ACAD_REACTORS
330
47
102
}
330
47
100
AcDbScale
 70
     0
300
1/4" = 1'-0"
140
0.25
141
12.0
290
     0
  0
SCALE
  5
51
102
{ACAD_REACTORS
330
47
102
}
330
47
100
AcDbScale
 70
     0
300
3/8" = 1'-0"
140
0.375
141
12.0
290
     0
  0
SCALE
  5
52
102
{ACAD_REACTORS
330
47
102
}
330
47
100
AcDbScale
 70
     0
300
1/2" = 1'-0"
140
0.5
141
12.0
290
     0
  0
SCALE
  5
53
102
{ACAD_REACTORS
330
47
102
}
330
47
100
AcDbScale
 70
     0
300
3/4" = 1'-0"
140
0.75
141
12.0
290
     0
  0
SCALE
  5
54
102
{ACAD_REACTORS
330
47
102
}
330
47
100
AcDbScale
 70
     0
300
1" = 1'-0"
140
1.0
141
12.0
290
     0
  0
SCALE
  5
55
102
{ACAD_REACTORS
330
47
102
}
330
47
100
AcDbScale
 70
     0
300
1-1/2" = 1'-0"
140
1.5
141
12.0
290
     0
  0
SCALE
  5
56
102
{ACAD_REACTORS
330
47
102
}
330
47
100
AcDbScale
 70
     0
300
3" = 1'-0"
140
3.0
141
12.0
290
     0
  0
SCALE
  5
57
102
{ACAD_REACTORS
330
47
102
}
330
47
100
AcDbScale
 70
     0
300
6" = 1'-0"
140
6.0
141
12.0
290
     0
  0
SCALE
  5
58
102
{ACAD_REACTORS
330
47
102
}
330
47
100
AcDbScale
 70
     0
300
1'-0" = 1'-0"
140
12.0
141
12.0
290
     0
  0
TABLESTYLE
  5
5A
102
{ACAD_REACTORS
330
59
102
}
102
{ACAD_XDICTIONARY
360
B5
102
}
330
59
100
AcDbTableStyle
  3
Standard
 70
     0
 71
     0
 40
0.06
 41
0.06
280
     0
281
     0
  7
Standard
140
0.18
170
     2
 62
     0
 63
   257
283
     0
 90
        4
 91
        0
  1

274
    -2
284
     1
 64
     0
275
    -2
285
     1
 65
     0
276
    -2
286
     1
 66
     0
277
    -2
287
     1
 67
     0
278
    -2
288
     1
 68
     0
279
    -2
289
     1
 69
     0
  7
Standard
140
0.25
170
     5
 62
     0
 63
   257
283
     0
 90
        4
 91
        0
  1

274
    -2
284
     1
 64
     0
275
    -2
285
     1
 65
     0
276
    -2
286
     1
 66
     0
277
    -2
287
     1
 67
     0
278
    -2
288
     1
 68
     0
279
    -2
289
     1
 69
     0
  7
Standard
140
0.18
170
     5
 62
     0
 63
   257
283
     0
 90
        4
 91
        0
  1

274
    -2
284
     1
 64
     0
275
    -2
285
     1
 65
     0
276
    -2
286
     1
 66
     0
277
    -2
287
     1
 67
     0
278
    -2
288
     1
 68
     0
279
    -2
289
     1
 69
     0
  0
VISUALSTYLE
  5
2F
102
{ACAD_REACTORS
330
2A
102
}
102
{ACAD_XDICTIONARY
360
8D
102
}
330
2A
100
AcDbVisualStyle
  2
2dWireframe
 70
     4
 71
     0
 72
     2
 73
     0
 90
        0
 40
0.6
 41
30.0
 62
     5
 63
     7
421
 16777215
 74
     1
 91
        4
 64
     7
 65
   257
 75
     1
175
     1
 42
1.0
 92
        0
 66
   257
 43
1.0
 76
     1
 77
     6
 78
     2
 67
     7
 79
     5
170
     0
171
     0
290
     0
174
     0
 93
        1
 44
0.0
173
     0
291
     0
 45
0.0
  0
VISUALSTYLE
  5
32
102
{ACAD_REACTORS
330
2A
102
}
102
{ACAD_XDICTIONARY
360
93
102
}
330
2A
100
AcDbVisualStyle
  2
Basic
 70
     7
 71
     1
 72
     0
 73
     1
 90
        0
 40
0.6
 41
30.0
 62
     5
 63
     7
421
 16777215
 74
     0
 91
        4
 64
     7
 65
   257
 75
     1
175
     1
 42
1.0
 92
        8
 66
     7
 43
1.0
 76
     1
 77
     6
 78
     2
 67
     7
 79
     5
170
     0
171
     0
290
     0
174
     0
 93
        1
 44
0.0
173
     0
291
     1
 45
0.0
  0
VISUALSTYLE
  5
36
102
{ACAD_REACTORS
330
2A
102
}
102
{ACAD_XDICTIONARY
360
9B
102
}
330
2A
100
AcDbVisualStyle
  2
Brighten
 70
    12
 71
     2
 72
     2
 73
     0
 90
        0
 40
0.6
 41
30.0
 62
     5
 63
     7
421
 16777215
 74
     1
 91
        4
 64
     7
 65
   257
 75
     1
175
     1
 42
1.0
 92
        8
 66
     7
 43
1.0
 76
     1
 77
     6
 78
     2
 67
     7
 79
     5
170
     0
171
     0
290
     0
174
     0
 93
        1
 44
50.0
173
     0
291
     1
 45
0.0
  0
VISUALSTYLE
  5
3A
102
{ACAD_REACTORS
330
2A
102
}
102
{ACAD_XDICTIONARY
360
A3
102
}
330
2A
100
AcDbVisualStyle
  2
ColorChange
 70
    16
 71
     2
 72
     2
 73
     3
 90
        0
 40
0.6
 41
30.0
 62
     5
 63
     8
421
  8421504
 74
     1
 91
        4
 64
     7
 65
   257
 75
     1
175
     1
 42
1.0
 92
        8
 66
     8
424
  8421504
 43
1.0
 76
     1
 77
     6
 78
     2
 67
     7
 79
     5
170
     0
171
     0
290
     0
174
     0
 93
        1
 44
0.0
173
     0
291
     1
 45
0.0
  0
VISUALSTYLE
  5
34
102
{ACAD_REACTORS
330
2A
102
}
102
{ACAD_XDICTIONARY
360
97
102
}
330
2A
100
AcDbVisualStyle
  2
Conceptual
 70
     9
 71
     3
 72
     2
 73
     0
 90
        0
 40
0.6
 41
30.0
 62
     5
 63
     7
421
 16777215
 74
     2
 91
        2
 64
     7
 65
   257
 75
     1
175
     1
 42
179.0
 92
        8
 66
     7
 43
1.0
 76
     1
 77
     6
 78
     2
 67
     7
 79
     3
170
     0
171
     0
290
     0
174
     0
 93
        1
 44
0.0
173
     0
291
     0
 45
0.0
  0
VISUALSTYLE
  5
35
102
{ACAD_REACTORS
330
2A
102
}
102
{ACAD_XDICTIONARY
360
99
102
}
330
2A
100
AcDbVisualStyle
  2
Dim
 70
    11
 71
     2
 72
     2
 73
     0
 90
        0
 40
0.6
 41
30.0
 62
     5
 63
     7
421
 16777215
 74
     1
 91
        4
 64
     7
 65
   257
 75
     1
175
     1
 42
1.0
 92
        8
 66
     7
 43
1.0
 76
     1
 77
     6
 78
     2
 67
     7
 79
     5
170
     0
171
     0
290
     0
174
     0
 93
        1
 44
-50.0
173
     0
291
     1
 45
0.0
  0
VISUALSTYLE
  5
3D
102
{ACAD_REACTORS
330
2A
102
}
102
{ACAD_XDICTIONARY
360
A9
102
}
330
2A
100
AcDbVisualStyle
  2
EdgeColorOff
 70
    22
 71
     2
 72
     2
 73
     0
 90
        0
 40
0.6
 41
30.0
 62
     5
 63
     7
421
 16777215
 74
     1
 91
        4
 64
     7
 65
   257
 75
     1
175
     1
 42
1.0
 92
        8
 66
     7
 43
1.0
 76
     1
 77
     6
 78
     2
 67
     7
 79
     5
170
     0
171
     0
290
     0
174
     0
 93
        1
 44
0.0
173
     0
291
     1
 45
0.0
  0
VISUALSTYLE
  5
39
102
{ACAD_REACTORS
330
2A
102
}
102
{ACAD_XDICTIONARY
360
A1
102
}
330
2A
100
AcDbVisualStyle
  2
Facepattern
 70
    15
 71
     2
 72
     2
 73
     0
 90
        0
 40
0.6
 41
30.0
 62
     5
 63
     7
421
 16777215
 74
     1
 91
        4
 64
     7
 65
   257
 75
     1
175
     1
 42
1.0
 92
        8
 66
     7
 43
1.0
 76
     1
 77
     6
 78
     2
 67
     7
 79
     5
170
     0
171
     0
290
     0
174
     0
 93
        1
 44
0.0
173
     0
291
     1
 45
0.0
  0
VISUALSTYLE
  5
2B
102
{ACAD_REACTORS
330
2A
102
}
102
{ACAD_XDICTIONARY
360
85
102
}
330
2A
100
AcDbVisualStyle
  2
Flat
 70
     0
 71
     2
 72
     1
 73
     1
 90
        2
 40
0.6
 41
30.0
 62
     5
 63
     7
421
 16777215
 74
     0
 91
        0
 64
     7
 65
   257
 75
     1
175
     1
 42
1.0
 92
        8
 66
     7
 43
1.0
 76
     1
 77
     6
 78
     2
 67
     7
 79
     5
170
     0
171
     0
290
     0
174
     0
 93
       13
 44
0.0
173
     0
291
     1
 45
0.0
  0
VISUALSTYLE
  5
2C
102
{ACAD_REACTORS
330
2A
102
}
102
{ACAD_XDICTIONARY
360
87
102
}
330
2A
100
AcDbVisualStyle
  2
FlatWithEdges
 70
     1
 71
     2
 72
     1
 73
     1
 90
        2
 40
0.6
 41
30.0
 62
     5
 63
     7
421
 16777215
 74
     1
 91
        0
 64
     7
 65
   257
 75
     1
175
     1
 42
1.0
 92
        0
 66
   257
 43
1.0
 76
     1
 77
     6
 78
     2
 67
     7
 79
     5
170
     0
171
     0
290
     0
174
     0
 93
       13
 44
0.0
173
     0
291
     1
 45
0.0
  0
VISUALSTYLE
  5
2D
102
{ACAD_REACTORS
330
2A
102
}
102
{ACAD_XDICTIONARY
360
89
102
}
330
2A
100
AcDbVisualStyle
  2
Gouraud
 70
     2
 71
     2
 72
     2
 73
     1
 90
        2
 40
0.6
 41
30.0
 62
     5
 63
     7
421
 16777215
 74
     0
 91
        0
 64
     7
 65
   257
 75
     1
175
     1
 42
1.0
 92
        0
 66
     7
 43
1.0
 76
     1
 77
     6
 78
     2
 67
     7
 79
     5
170
     0
171
     0
290
     0
174
     0
 93
       13
 44
0.0
173
     0
291
     1
 45
0.0
  0
VISUALSTYLE
  5
2E
102
{ACAD_REACTORS
330
2A
102
}
102
{ACAD_XDICTIONARY
360
8B
102
}
330
2A
100
AcDbVisualStyle
  2
GouraudWithEdges
 70
     3
 71
     2
 72
     2
 73
     1
 90
        2
 40
0.6
 41
30.0
 62
     5
 63
     7
421
 16777215
 74
     1
 91
        0
 64
     7
 65
   257
 75
     1
175
     1
 42
1.0
 92
        0
 66
   257
 43
1.0
 76
     1
 77
     6
 78
     2
 67
     7
 79
     5
170
     0
171
     0
290
     0
174
     0
 93
       13
 44
0.0
173
     0
291
     1
 45
0.0
  0
VISUALSTYLE
  5
31
102
{ACAD_REACTORS
330
2A
102
}
102
{ACAD_XDICTIONARY
360
91
102
}
330
2A
100
AcDbVisualStyle
  2
Hidden
 70
     6
 71
     1
 72
     2
 73
     2
 90
        0
 40
0.6
 41
30.0
 62
     5
 63
     7
421
 16777215
 74
     2
 91
        2
 64
     7
 65
   257
 75
     2
175
     1
 42
40.0
 92
        0
 66
   257
 43
1.0
 76
     1
 77
     6
 78
     2
 67
     7
 79
     3
170
     0
171
     0
290
     0
174
     0
 93
        1
 44
0.0
173
     0
291
     0
 45
0.0
  0
VISUALSTYLE
  5
3B
102
{ACAD_REACTORS
330
2A
102
}
102
{ACAD_XDICTIONARY
360
A5
102
}
330
2A
100
AcDbVisualStyle
  2
JitterOff
 70
    20
 71
     2
 72
     2
 73
     0
 90
        0
 40
0.6
 41
30.0
 62
     5
 63
     7
421
 16777215
 74
     1
 91
        4
 64
     7
 65
   257
 75
     1
175
     1
 42
1.0
 92
       10
 66
     7
 43
1.0
 76
     1
 77
     6
 78
     2
 67
     7
 79
     5
170
     0
171
     0
290
     0
174
     0
 93
        1
 44
0.0
173
     0
291
     1
 45
0.0
  0
VISUALSTYLE
  5
38
102
{ACAD_REACTORS
330
2A
102
}
102
{ACAD_XDICTIONARY
360
9F
102
}
330
2A
100
AcDbVisualStyle
  2
Linepattern
 70
    14
 71
     2
 72
     2
 73
     0
 90
        0
 40
0.6
 41
30.0
 62
     5
 63
     7
421
 16777215
 74
     1
 91
        4
 64
     7
 65
   257
 75
     7
175
     7
 42
1.0
 92
        8
 66
     7
 43
1.0
 76
     1
 77
     6
 78
     2
 67
     7
 79
     5
170
     0
171
     0
290
     0
174
     0
 93
        1
 44
0.0
173
     0
291
     1
 45
0.0
  0
VISUALSTYLE
  5
3C
102
{ACAD_REACTORS
330
2A
102
}
102
{ACAD_XDICTIONARY
360
A7
102
}
330
2A
100
AcDbVisualStyle
  2
OverhangOff
 70
    21
 71
     2
 72
     2
 73
     0
 90
        0
 40
0.6
 41
30.0
 62
     5
 63
     7
421
 16777215
 74
     1
 91
        4
 64
     7
 65
   257
 75
     1
175
     1
 42
1.0
 92
        9
 66
     7
 43
1.0
 76
     1
 77
     6
 78
     2
 67
     7
 79
     5
170
     0
171
     0
290
     0
174
     0
 93
        1
 44
0.0
173
     0
291
     1
 45
0.0
  0
VISUALSTYLE
  5
33
102
{ACAD_REACTORS
330
2A
102
}
102
{ACAD_XDICTIONARY
360
95
102
}
330
2A
100
AcDbVisualStyle
  2
Realistic
 70
     8
 71
     2
 72
     3
 73
     0
 90
        2
 40
0.6
 41
30.0
 62
     5
 63
     7
421
 16777215
 74
     0
 91
        0
 64
     7
 65
   257
 75
     1
175
     1
 42
1.0
 92
        8
 66
   257
 43
1.0
 76
     1
 77
     6
 78
     2
 67
     7
 79
     3
170
     0
171
     0
290
     0
174
     0
 93
       13
 44
0.0
173
     0
291
     0
 45
0.0
  0
VISUALSTYLE
  5
42
102
{ACAD_REACTORS
330
2A
102
}
102
{ACAD_XDICTIONARY
360
B3
102
}
330
2A
100
AcDbVisualStyle
  2
Shaded
 70
    27
 71
     2
 72
     2
 73
     1
 90
        2
 40
0.6
 41
30.0
 62
     5
 63
     7
421
 16777215
 74
     0
 91
        4
 64
     7
 65
   257
 75
     1
175
     1
 42
1.0
 92
        8
 66
   257
 43
1.0
 76
     1
 77
     6
 78
     2
 67
     8
425
  7895160
 79
     3
170
     0
171
     0
290
     0
174
     0
 93
        5
 44
0.0
173
     0
291
     0
 45
0.0
  0
VISUALSTYLE
  5
41
102
{ACAD_REACTORS
330
2A
102
}
102
{ACAD_XDICTIONARY
360
B1
102
}
330
2A
100
AcDbVisualStyle
  2
Shaded with edges
 70
    26
 71
     2
 72
     2
 73
     1
 90
        2
 40
0.6
 41
30.0
 62
     5
 63
     7
421
 16777215
 74
     1
 91
       10
 64
     7
 65
   257
 75
     2
175
     1
 42
1.0
 92
        8
 66
   257
 43
1.0
 76
     1
 77
     6
 78
     2
 67
     7
 79
     3
170
     0
171
     0
290
     0
174
     0
 93
        5
 44
0.0
173
     0
291
     0
 45
0.0
  0
VISUALSTYLE
  5
3E
102
{ACAD_REACTORS
330
2A
102
}
102
{ACAD_XDICTIONARY
360
AB
102
}
330
2A
100
AcDbVisualStyle
  2
Shades of Gray
 70
    23
 71
     2
 72
     2
 73
     3
 90
        0
 40
0.6
 41
30.0
 62
     5
 63
     7
421
 16777215
 74
     2
 91
        2
 64
     7
 65
     7
 75
     1
175
     1
 42
40.0
 92
        8
 66
     7
 43
1.0
 76
     1
 77
     6
 78
     2
 67
     7
 79
     3
170
     0
171
     0
290
     0
174
     0
 93
        1
 44
0.0
173
     0
291
     0
 45
0.0
  0
VISUALSTYLE
  5
3F
102
{ACAD_REACTORS
330
2A
102
}
102
{ACAD_XDICTIONARY
360
AD
102
}
330
2A
100
AcDbVisualStyle
  2
Sketchy
 70
    24
 71
     1
 72
     2
 73
     2
 90
        0
 40
0.6
 41
30.0
 62
     5
 63
     7
421
 16777215
 74
     2
 91
        2
 64
     7
 65
     7
 75
     1
175
     1
 42
40.0
 92
       11
 66
     7
 43
1.0
 76
     1
 77
     6
 78
     2
 67
     7
 79
     6
170
     0
171
     0
290
     0
174
     0
 93
        1
 44
0.0
173
     0
291
     0
 45
0.0
  0
VISUALSTYLE
  5
37
102
{ACAD_REACTORS
330
2A
102
}
102
{ACAD_XDICTIONARY
360
9D
102
}
330
2A
100
AcDbVisualStyle
  2
Thicken
 70
    13
 71
     2
 72
     2
 73
     0
 90
        0
 40
0.6
 41
30.0
 62
     5
 63
     7
421
 16777215
 74
     1
 91
        4
 64
     7
 65
   257
 75
     1
175
     1
 42
1.0
 92
       12
 66
     7
 43
1.0
 76
     1
 77
     6
 78
     2
 67
     7
 79
     5
170
     0
171
     0
290
     0
174
     0
 93
        1
 44
0.0
173
     0
291
     1
 45
0.0
  0
VISUALSTYLE
  5
30
102
{ACAD_REACTORS
330
2A
102
}
102
{ACAD_XDICTIONARY
360
8F
102
}
330
2A
100
AcDbVisualStyle
  2
Wireframe
 70
     5
 71
     0
 72
     2
 73
     0
 90
        0
 40
0.6
 41
30.0
 62
     5
 63
     7
421
 16777215
 74
     1
 91
        4
 64
     7
 65
   257
 75
     1
175
     1
 42
1.0
 92
        0
 66
   257
 43
1.0
 76
     1
 77
     6
 78
     2
 67
     7
 79
     3
170
     0
171
     0
290
     0
174
     0
 93
        1
 44
0.0
173
     0
291
     0
 45
0.0
  0
VISUALSTYLE
  5
40
102
{ACAD_REACTORS
330
2A
102
}
102
{ACAD_XDICTIONARY
360
AF
102
}
330
2A
100
AcDbVisualStyle
  2
X-Ray
 70
    25
 71
     2
 72
     2
 73
     1
 90
        1
 40
0.5
 41
30.0
 62
     5
 63
     7
421
 16777215
 74
     1
 91
        0
 64
     7
 65
   257
 75
     1
175
     1
 42
1.0
 92
        8
 66
     7
 43
1.0
 76
     1
 77
     6
 78
     2
 67
     7
 79
     3
170
     0
171
     0
290
     0
174
     0
 93
       13
 44
0.0
173
     0
291
     0
 45
0.0
  0
DICTIONARYVAR
  5
83
102
{ACAD_REACTORS
330
82
102
}
330
82
100
DictionaryVariables
280
     0
  1
1:1
  0
DICTIONARYVAR
  5
BC
102
{ACAD_REACTORS
330
82
102
}
330
82
100
DictionaryVariables
280
     0
  1
Standard
  0
DICTIONARYVAR
  5
BB
102
{ACAD_REACTORS
330
82
102
}
330
82
100
DictionaryVariables
280
     0
  1
Standard
  0
DICTIONARYVAR
  5
84
102
{ACAD_REACTORS
330
82
102
}
330
82
100
DictionaryVariables
280
     0
  1
2
  0
DICTIONARY
  5
B8
330
5C
100
AcDbDictionary
280
     1
281
     1
  3
ACAD_XREC_ROUNDTRIP
360
B9
  0
DICTIONARY
  5
B5
330
5A
100
AcDbDictionary
280
     1
281
     1
  3
ACAD_ROUNDTRIP_2008_TABLESTYLE_CELLSTYLEMAP
360
B6
  0
DICTIONARY
  5
8D
330
2F
100
AcDbDictionary
280
     1
281
     1
  3
ACAD_XREC_ROUNDTRIP
360
8E
  0
DICTIONARY
  5
93
330
32
100
AcDbDictionary
280
     1
281
     1
  3
ACAD_XREC_ROUNDTRIP
360
94
  0
DICTIONARY
  5
9B
330
36
100
AcDbDictionary
280
     1
281
     1
  3
ACAD_XREC_ROUNDTRIP
360
9C
  0
DICTIONARY
  5
A3
330
3A
100
AcDbDictionary
280
     1
281
     1
  3
ACAD_XREC_ROUNDTRIP
360
A4
  0
DICTIONARY
  5
97
330
34
100
AcDbDictionary
280
     1
281
     1
  3
ACAD_XREC_ROUNDTRIP
360
98
  0
DICTIONARY
  5
99
330
35
100
AcDbDictionary
280
     1
281
     1
  3
ACAD_XREC_ROUNDTRIP
360
9A
  0
DICTIONARY
  5
A9
330
3D
100
AcDbDictionary
280
     1
281
     1
  3
ACAD_XREC_ROUNDTRIP
360
AA
  0
DICTIONARY
  5
A1
330
39
100
AcDbDictionary
280
     1
281
     1
  3
ACAD_XREC_ROUNDTRIP
360
A2
  0
DICTIONARY
  5
85
330
2B
100
AcDbDictionary
280
     1
281
     1
  3
ACAD_XREC_ROUNDTRIP
360
86
  0
DICTIONARY
  5
87
330
2C
100
AcDbDictionary
280
     1
281
     1
  3
ACAD_XREC_ROUNDTRIP
360
88
  0
DICTIONARY
  5
89
330
2D
100
AcDbDictionary
280
     1
281
     1
  3
ACAD_XREC_ROUNDTRIP
360
8A
  0
DICTIONARY
  5
8B
330
2E
100
AcDbDictionary
280
     1
281
     1
  3
ACAD_XREC_ROUNDTRIP
360
8C
  0
DICTIONARY
  5
91
330
31
100
AcDbDictionary
280
     1
281
     1
  3
ACAD_XREC_ROUNDTRIP
360
92
  0
DICTIONARY
  5
A5
330
3B
100
AcDbDictionary
280
     1
281
     1
  3
ACAD_XREC_ROUNDTRIP
360
A6
  0
DICTIONARY
  5
9F
330
38
100
AcDbDictionary
280
     1
281
     1
  3
ACAD_XREC_ROUNDTRIP
360
A0
  0
DICTIONARY
  5
A7
330
3C
100
AcDbDictionary
280
     1
281
     1
  3
ACAD_XREC_ROUNDTRIP
360
A8
  0
DICTIONARY
  5
95
330
33
100
AcDbDictionary
280
     1
281
     1
  3
ACAD_XREC_ROUNDTRIP
360
96
  0
DICTIONARY
  5
B3
330
42
100
AcDbDictionary
280
     1
281
     1
  3
ACAD_XREC_ROUNDTRIP
360
B4
  0
DICTIONARY
  5
B1
330
41
100
AcDbDictionary
280
     1
281
     1
  3
ACAD_XREC_ROUNDTRIP
360
B2
  0
DICTIONARY
  5
AB
330
3E
100
AcDbDictionary
280
     1
281
     1
  3
ACAD_XREC_ROUNDTRIP
360
AC
  0
DICTIONARY
  5
AD
330
3F
100
AcDbDictionary
280
     1
281
     1
  3
ACAD_XREC_ROUNDTRIP
360
AE
  0
DICTIONARY
  5
9D
330
37
100
AcDbDictionary
280
     1
281
     1
  3
ACAD_XREC_ROUNDTRIP
360
9E
  0
DICTIONARY
  5
8F
330
30
100
AcDbDictionary
280
     1
281
     1
  3
ACAD_XREC_ROUNDTRIP
360
90
  0
DICTIONARY
  5
AF
330
40
100
AcDbDictionary
280
     1
281
     1
  3
ACAD_XREC_ROUNDTRIP
360
B0
  0
XRECORD
  5
B9
102
{ACAD_REACTORS
330
B8
102
}
330
B8
100
AcDbXrecord
280
     1
102
ACAD_ROUNDTRIP_2010_MLEADER_STYLE
  0
CELLSTYLEMAP
  5
B6
102
{ACAD_REACTORS
330
B5
102
}
330
B5
100
AcDbCellStyleMap
 90
        3
300
CELLSTYLE
  1
TABLEFORMAT_BEGIN
 90
        5
170
     1
 91
        0
 92
    32768
 62
   257
 93
        1
300
CONTENTFORMAT
  1
CONTENTFORMAT_BEGIN
 90
        0
 91
        0
 92
        4
 93
        0
300

 40
0.0
140
1.0
 94
        5
 62
     0
340
11
144
0.25
309
CONTENTFORMAT_END
171
     1
301
MARGIN
  1
CELLMARGIN_BEGIN
 40
0.06
 40
0.06
 40
0.06
 40
0.06
 40
0.06
 40
0.06
309
CELLMARGIN_END
 94
        6
 95
        1
302
GRIDFORMAT
  1
GRIDFORMAT_BEGIN
 90
        0
 91
        1
 62
     0
 92
       -2
340
14
 93
        0
 40
0.045
309
GRIDFORMAT_END
 95
        2
302
GRIDFORMAT
  1
GRIDFORMAT_BEGIN
 90
        0
 91
        1
 62
     0
 92
       -2
340
14
 93
        0
 40
0.045
309
GRIDFORMAT_END
 95
        4
302
GRIDFORMAT
  1
GRIDFORMAT_BEGIN
 90
        0
 91
        1
 62
     0
 92
       -2
340
14
 93
        0
 40
0.045
309
GRIDFORMAT_END
 95
        8
302
GRIDFORMAT
  1
GRIDFORMAT_BEGIN
 90
        0
 91
        1
 62
     0
 92
       -2
340
14
 93
        0
 40
0.045
309
GRIDFORMAT_END
 95
       16
302
GRIDFORMAT
  1
GRIDFORMAT_BEGIN
 90
        0
 91
        1
 62
     0
 92
       -2
340
14
 93
        0
 40
0.045
309
GRIDFORMAT_END
 95
       32
302
GRIDFORMAT
  1
GRIDFORMAT_BEGIN
 90
        0
 91
        1
 62
     0
 92
       -2
340
14
 93
        0
 40
0.045
309
GRIDFORMAT_END
309
TABLEFORMAT_END
  1
CELLSTYLE_BEGIN
 90
        1
 91
        1
300
_TITLE
309
CELLSTYLE_END
300
CELLSTYLE
  1
TABLEFORMAT_BEGIN
 90
        5
170
     1
 91
        0
 92
        0
 62
   257
 93
        1
300
CONTENTFORMAT
  1
CONTENTFORMAT_BEGIN
 90
        0
 91
        0
 92
        4
 93
        0
300

 40
0.0
140
1.0
 94
        5
 62
     0
340
11
144
0.18
309
CONTENTFORMAT_END
171
     1
301
MARGIN
  1
CELLMARGIN_BEGIN
 40
0.06
 40
0.06
 40
0.06
 40
0.06
 40
0.06
 40
0.06
309
CELLMARGIN_END
 94
        6
 95
        1
302
GRIDFORMAT
  1
GRIDFORMAT_BEGIN
 90
        0
 91
        1
 62
     0
 92
       -2
340
14
 93
        0
 40
0.045
309
GRIDFORMAT_END
 95
        2
302
GRIDFORMAT
  1
GRIDFORMAT_BEGIN
 90
        0
 91
        1
 62
     0
 92
       -2
340
14
 93
        0
 40
0.045
309
GRIDFORMAT_END
 95
        4
302
GRIDFORMAT
  1
GRIDFORMAT_BEGIN
 90
        0
 91
        1
 62
     0
 92
       -2
340
14
 93
        0
 40
0.045
309
GRIDFORMAT_END
 95
        8
302
GRIDFORMAT
  1
GRIDFORMAT_BEGIN
 90
        0
 91
        1
 62
     0
 92
       -2
340
14
 93
        0
 40
0.045
309
GRIDFORMAT_END
 95
       16
302
GRIDFORMAT
  1
GRIDFORMAT_BEGIN
 90
        0
 91
        1
 62
     0
 92
       -2
340
14
 93
        0
 40
0.045
309
GRIDFORMAT_END
 95
       32
302
GRIDFORMAT
  1
GRIDFORMAT_BEGIN
 90
        0
 91
        1
 62
     0
 92
       -2
340
14
 93
        0
 40
0.045
309
GRIDFORMAT_END
309
TABLEFORMAT_END
  1
CELLSTYLE_BEGIN
 90
        2
 91
        1
300
_HEADER
309
CELLSTYLE_END
300
CELLSTYLE
  1
TABLEFORMAT_BEGIN
 90
        5
170
     1
 91
        0
 92
        0
 62
   257
 93
        1
300
CONTENTFORMAT
  1
CONTENTFORMAT_BEGIN
 90
        0
 91
        0
 92
        4
 93
        0
300

 40
0.0
140
1.0
 94
        2
 62
     0
340
11
144
0.18
309
CONTENTFORMAT_END
171
     1
301
MARGIN
  1
CELLMARGIN_BEGIN
 40
0.06
 40
0.06
 40
0.06
 40
0.06
 40
0.06
 40
0.06
309
CELLMARGIN_END
 94
        6
 95
        1
302
GRIDFORMAT
  1
GRIDFORMAT_BEGIN
 90
        0
 91
        1
 62
     0
 92
       -2
340
14
 93
        0
 40
0.045
309
GRIDFORMAT_END
 95
        2
302
GRIDFORMAT
  1
GRIDFORMAT_BEGIN
 90
        0
 91
        1
 62
     0
 92
       -2
340
14
 93
        0
 40
0.045
309
GRIDFORMAT_END
 95
        4
302
GRIDFORMAT
  1
GRIDFORMAT_BEGIN
 90
        0
 91
        1
 62
     0
 92
       -2
340
14
 93
        0
 40
0.045
309
GRIDFORMAT_END
 95
        8
302
GRIDFORMAT
  1
GRIDFORMAT_BEGIN
 90
        0
 91
        1
 62
     0
 92
       -2
340
14
 93
        0
 40
0.045
309
GRIDFORMAT_END
 95
       16
302
GRIDFORMAT
  1
GRIDFORMAT_BEGIN
 90
        0
 91
        1
 62
     0
 92
       -2
340
14
 93
        0
 40
0.045
309
GRIDFORMAT_END
 95
       32
302
GRIDFORMAT
  1
GRIDFORMAT_BEGIN
 90
        0
 91
        1
 62
     0
 92
       -2
340
14
 93
        0
 40
0.045
309
GRIDFORMAT_END
309
TABLEFORMAT_END
  1
CELLSTYLE_BEGIN
 90
        3
 91
        2
300
_DATA
309
CELLSTYLE_END
  0
XRECORD
  5
8E
102
{ACAD_REACTORS
330
8D
102
}
330
8D
100
AcDbXrecord
280
     1
102
RTVSPropertyOp0
 70
     1
102
RTVSPropertyOp1
 70
     1
102
RTVSPropertyOp2
 70
     1
102
RTVSPropertyOp3
 70
     1
102
RTVSPropertyOp4
 70
     1
102
RTVSPropertyOp5
 70
     1
102
RTVSPropertyOp6
 70
     1
102
RTVSPropertyOp7
 70
     1
102
RTVSPropertyOp8
 70
     1
102
RTVSPropertyOp9
 70
     1
102
RTVSPropertyOp10
 70
     1
102
RTVSPropertyOp11
 70
     1
102
RTVSPropertyOp12
 70
     1
102
RTVSPropertyOp13
 70
     1
102
RTVSPropertyOp14
 70
     1
102
RTVSPropertyOp15
 70
     1
102
RTVSPropertyOp16
 70
     1
102
RTVSPropertyOp17
 70
     1
102
RTVSPropertyOp18
 70
     1
102
RTVSPropertyOp19
 70
     1
102
RTVSPropertyOp20
 70
     1
102
RTVSPropertyOp21
 70
     1
102
RTVSPropertyOp22
 70
     1
102
RTVSPropertyOp23
 70
     1
102
RTVSPropertyOp24
 70
     1
102
RTVSPropertyOp25
 70
     1
102
RTVSPropertyOp26
 70
     1
102
RTVSPropertyOp27
 70
     1
102
RTVSPropertyOp28
 70
     1
102
RTVSPropertyOp29
 70
     1
102
RTVSPropertyOp30
 70
     1
102
RTVSPropertyOp31
 70
     1
102
RTVSPropertyOp32
 70
     1
102
RTVSPropertyOp33
 70
     1
102
RTVSPropertyOp34
 70
     1
102
RTVSPropertyOp35
 70
     1
102
RTVSPropertyOp36
 70
     1
102
RTVSPropertyOp37
 70
     1
102
RTVSPropertyOp38
 70
     1
102
RTVSPropertyOp39
 70
     1
102
RTVSPropertyOp40
 70
     1
102
RTVSPropertyOp41
 70
     1
102
RTVSPropertyOp42
 70
     1
102
RTVSPropertyOp43
 70
     1
102
RTVSPropertyOp44
 70
     1
102
RTVSPropertyOp45
 70
     1
102
RTVSPropertyOp46
 70
     1
102
RTVSPropertyOp47
 70
     1
102
RTVSPropertyOp48
 70
     1
102
RTVSPropertyOp49
 70
     1
102
RTVSPropertyOp50
 70
     1
102
RTVSPropertyOp51
 70
     0
102
RTVSPropertyOp52
 70
     0
102
RTVSPropertyOp53
 70
     1
102
RTVSPropertyOp54
 70
     1
102
RTVSPropertyOp55
 70
     1
102
RTVSPropertyOp56
 70
     1
102
RTVSPropertyOp57
 70
     1
102
RTVSPost2010Prop28
280
     1
102
RTVSPost2010PropOp28
 70
     1
102
RTVSPost2010Prop29
280
     1
102
RTVSPost2010PropOp29
 70
     1
102
RTVSPost2010Prop30
280
     0
102
RTVSPost2010PropOp30
 70
     1
102
RTVSPost2010Prop31
280
     0
102
RTVSPost2010PropOp31
 70
     1
102
RTVSPost2010Prop32
280
     0
102
RTVSPost2010PropOp32
 70
     1
102
RTVSPost2010Prop33
280
     0
102
RTVSPost2010PropOp33
 70
     1
102
RTVSPost2010Prop34
280
     0
102
RTVSPost2010PropOp34
 70
     1
102
RTVSPost2010Prop35
280
     0
102
RTVSPost2010PropOp35
 70
     1
102
RTVSPost2010Prop36
280
     0
102
RTVSPost2010PropOp36
 70
     1
102
RTVSPost2010Prop37
 90
       50
102
RTVSPost2010PropOp37
 70
     1
102
RTVSPost2010Prop38
140
0.0
102
RTVSPost2010PropOp38
 70
     1
102
RTVSPost2010Prop39
140
1.0
102
RTVSPost2010PropOp39
 70
     1
102
RTVSPost2010Prop40
 90
        0
102
RTVSPost2010PropOp40
 70
     1
102
RTVSPost2010Prop41ColorIndex
 90
       18
102
RTVSPost2010Prop41ColorRGB
 90
        0
102
RTVSPost2010PropOp41
 70
     1
102
RTVSPost2010Prop42
 90
       50
102
RTVSPost2010PropOp42
 70
     1
102
RTVSPost2010Prop43
 90
        3
102
RTVSPost2010PropOp43
 70
     1
102
RTVSPost2010Prop44ColorIndex
 90
        5
102
RTVSPost2010Prop44ColorRGB
 90
      255
102
RTVSPost2010PropOp44
 70
     1
102
RTVSPost2010Prop45
280
     0
102
RTVSPost2010PropOp45
 70
     1
102
RTVSPost2010Prop46
 90
       50
102
RTVSPost2010PropOp46
 70
     1
102
RTVSPost2010Prop47
 90
       50
102
RTVSPost2010PropOp47
 70
     1
102
RTVSPost2010Prop48
 90
       50
102
RTVSPost2010PropOp48
 70
     1
102
RTVSPost2010Prop49
280
     0
102
RTVSPost2010PropOp49
 70
     1
102
RTVSPost2010Prop50
 90
       50
102
RTVSPost2010PropOp50
 70
     1
102
RTVSPost2010Prop51ColorIndex
 90
      256
102
RTVSPost2010Prop51ColorRGB
 90
-16777216
102
RTVSPost2010PropOp51
 70
     0
102
RTVSPost2010Prop52
140
1.0
102
RTVSPost2010PropOp52
 70
     0
102
RTVSPost2010Prop53
 90
        2
102
RTVSPost2010PropOp53
 70
     1
102
RTVSPost2010Prop54
  1
strokes_ogs.tif
102
RTVSPost2010PropOp54
 70
     1
102
RTVSPost2010Prop55
280
     0
102
RTVSPost2010PropOp55
 70
     1
102
RTVSPost2010Prop56
140
1.0
102
RTVSPost2010PropOp56
 70
     1
102
RTVSPost2010Prop57
140
1.0
102
RTVSPost2010PropOp57
 70
     1
  0
XRECORD
  5
94
102
{ACAD_REACTORS
330
93
102
}
330
93
100
AcDbXrecord
280
     1
102
RTVSPropertyOp0
 70
     1
102
RTVSPropertyOp1
 70
     1
102
RTVSPropertyOp2
 70
     1
102
RTVSPropertyOp3
 70
     1
102
RTVSPropertyOp4
 70
     1
102
RTVSPropertyOp5
 70
     1
102
RTVSPropertyOp6
 70
     1
102
RTVSPropertyOp7
 70
     1
102
RTVSPropertyOp8
 70
     1
102
RTVSPropertyOp9
 70
     1
102
RTVSPropertyOp10
 70
     1
102
RTVSPropertyOp11
 70
     1
102
RTVSPropertyOp12
 70
     1
102
RTVSPropertyOp13
 70
     1
102
RTVSPropertyOp14
 70
     1
102
RTVSPropertyOp15
 70
     1
102
RTVSPropertyOp16
 70
     1
102
RTVSPropertyOp17
 70
     1
102
RTVSPropertyOp18
 70
     1
102
RTVSPropertyOp19
 70
     1
102
RTVSPropertyOp20
 70
     1
102
RTVSPropertyOp21
 70
     1
102
RTVSPropertyOp22
 70
     1
102
RTVSPropertyOp23
 70
     1
102
RTVSPropertyOp24
 70
     1
102
RTVSPropertyOp25
 70
     1
102
RTVSPropertyOp26
 70
     1
102
RTVSPropertyOp27
 70
     1
102
RTVSPropertyOp28
 70
     1
102
RTVSPropertyOp29
 70
     1
102
RTVSPropertyOp30
 70
     1
102
RTVSPropertyOp31
 70
     1
102
RTVSPropertyOp32
 70
     1
102
RTVSPropertyOp33
 70
     1
102
RTVSPropertyOp34
 70
     1
102
RTVSPropertyOp35
 70
     1
102
RTVSPropertyOp36
 70
     1
102
RTVSPropertyOp37
 70
     1
102
RTVSPropertyOp38
 70
     1
102
RTVSPropertyOp39
 70
     1
102
RTVSPropertyOp40
 70
     1
102
RTVSPropertyOp41
 70
     1
102
RTVSPropertyOp42
 70
     1
102
RTVSPropertyOp43
 70
     1
102
RTVSPropertyOp44
 70
     1
102
RTVSPropertyOp45
 70
     1
102
RTVSPropertyOp46
 70
     1
102
RTVSPropertyOp47
 70
     1
102
RTVSPropertyOp48
 70
     1
102
RTVSPropertyOp49
 70
     1
102
RTVSPropertyOp50
 70
     1
102
RTVSPropertyOp51
 70
     0
102
RTVSPropertyOp52
 70
     0
102
RTVSPropertyOp53
 70
     1
102
RTVSPropertyOp54
 70
     1
102
RTVSPropertyOp55
 70
     1
102
RTVSPropertyOp56
 70
     1
102
RTVSPropertyOp57
 70
     1
102
RTVSPost2010Prop28
280
     0
102
RTVSPost2010PropOp28
 70
     1
102
RTVSPost2010Prop29
280
     1
102
RTVSPost2010PropOp29
 70
     1
102
RTVSPost2010Prop30
280
     1
102
RTVSPost2010PropOp30
 70
     1
102
RTVSPost2010Prop31
280
     0
102
RTVSPost2010PropOp31
 70
     1
102
RTVSPost2010Prop32
280
     0
102
RTVSPost2010PropOp32
 70
     1
102
RTVSPost2010Prop33
280
     0
102
RTVSPost2010PropOp33
 70
     1
102
RTVSPost2010Prop34
280
     0
102
RTVSPost2010PropOp34
 70
     1
102
RTVSPost2010Prop35
280
     0
102
RTVSPost2010PropOp35
 70
     1
102
RTVSPost2010Prop36
280
     0
102
RTVSPost2010PropOp36
 70
     1
102
RTVSPost2010Prop37
 90
       50
102
RTVSPost2010PropOp37
 70
     1
102
RTVSPost2010Prop38
140
0.0
102
RTVSPost2010PropOp38
 70
     1
102
RTVSPost2010Prop39
140
1.0
102
RTVSPost2010PropOp39
 70
     1
102
RTVSPost2010Prop40
 90
        0
102
RTVSPost2010PropOp40
 70
     1
102
RTVSPost2010Prop41ColorIndex
 90
       18
102
RTVSPost2010Prop41ColorRGB
 90
        0
102
RTVSPost2010PropOp41
 70
     1
102
RTVSPost2010Prop42
 90
       50
102
RTVSPost2010PropOp42
 70
     1
102
RTVSPost2010Prop43
 90
        3
102
RTVSPost2010PropOp43
 70
     1
102
RTVSPost2010Prop44ColorIndex
 90
        5
102
RTVSPost2010Prop44ColorRGB
 90
      255
102
RTVSPost2010PropOp44
 70
     1
102
RTVSPost2010Prop45
280
     0
102
RTVSPost2010PropOp45
 70
     1
102
RTVSPost2010Prop46
 90
       50
102
RTVSPost2010PropOp46
 70
     1
102
RTVSPost2010Prop47
 90
       50
102
RTVSPost2010PropOp47
 70
     1
102
RTVSPost2010Prop48
 90
       50
102
RTVSPost2010PropOp48
 70
     1
102
RTVSPost2010Prop49
280
     0
102
RTVSPost2010PropOp49
 70
     1
102
RTVSPost2010Prop50
 90
       50
102
RTVSPost2010PropOp50
 70
     1
102
RTVSPost2010Prop51ColorIndex
 90
      256
102
RTVSPost2010Prop51ColorRGB
 90
-16777216
102
RTVSPost2010PropOp51
 70
     0
102
RTVSPost2010Prop52
140
1.0
102
RTVSPost2010PropOp52
 70
     0
102
RTVSPost2010Prop53
 90
        2
102
RTVSPost2010PropOp53
 70
     1
102
RTVSPost2010Prop54
  1
strokes_ogs.tif
102
RTVSPost2010PropOp54
 70
     1
102
RTVSPost2010Prop55
280
     0
102
RTVSPost2010PropOp55
 70
     1
102
RTVSPost2010Prop56
140
1.0
102
RTVSPost2010PropOp56
 70
     1
102
RTVSPost2010Prop57
140
1.0
102
RTVSPost2010PropOp57
 70
     1
  0
XRECORD
  5
9C
102
{ACAD_REACTORS
330
9B
102
}
330
9B
100
AcDbXrecord
280
     1
102
RTVSPropertyOp0
 70
     1
102
RTVSPropertyOp1
 70
     1
102
RTVSPropertyOp2
 70
     1
102
RTVSPropertyOp3
 70
     1
102
RTVSPropertyOp4
 70
     1
102
RTVSPropertyOp5
 70
     1
102
RTVSPropertyOp6
 70
     1
102
RTVSPropertyOp7
 70
     1
102
RTVSPropertyOp8
 70
     1
102
RTVSPropertyOp9
 70
     1
102
RTVSPropertyOp10
 70
     1
102
RTVSPropertyOp11
 70
     1
102
RTVSPropertyOp12
 70
     1
102
RTVSPropertyOp13
 70
     1
102
RTVSPropertyOp14
 70
     1
102
RTVSPropertyOp15
 70
     1
102
RTVSPropertyOp16
 70
     1
102
RTVSPropertyOp17
 70
     1
102
RTVSPropertyOp18
 70
     1
102
RTVSPropertyOp19
 70
     1
102
RTVSPropertyOp20
 70
     1
102
RTVSPropertyOp21
 70
     1
102
RTVSPropertyOp22
 70
     1
102
RTVSPropertyOp23
 70
     1
102
RTVSPropertyOp24
 70
     1
102
RTVSPropertyOp25
 70
     1
102
RTVSPropertyOp26
 70
     1
102
RTVSPropertyOp27
 70
     1
102
RTVSPropertyOp28
 70
     1
102
RTVSPropertyOp29
 70
     1
102
RTVSPropertyOp30
 70
     1
102
RTVSPropertyOp31
 70
     1
102
RTVSPropertyOp32
 70
     1
102
RTVSPropertyOp33
 70
     1
102
RTVSPropertyOp34
 70
     1
102
RTVSPropertyOp35
 70
     1
102
RTVSPropertyOp36
 70
     1
102
RTVSPropertyOp37
 70
     1
102
RTVSPropertyOp38
 70
     1
102
RTVSPropertyOp39
 70
     1
102
RTVSPropertyOp40
 70
     1
102
RTVSPropertyOp41
 70
     1
102
RTVSPropertyOp42
 70
     1
102
RTVSPropertyOp43
 70
     1
102
RTVSPropertyOp44
 70
     1
102
RTVSPropertyOp45
 70
     1
102
RTVSPropertyOp46
 70
     1
102
RTVSPropertyOp47
 70
     1
102
RTVSPropertyOp48
 70
     1
102
RTVSPropertyOp49
 70
     1
102
RTVSPropertyOp50
 70
     1
102
RTVSPropertyOp51
 70
     0
102
RTVSPropertyOp52
 70
     0
102
RTVSPropertyOp53
 70
     1
102
RTVSPropertyOp54
 70
     1
102
RTVSPropertyOp55
 70
     1
102
RTVSPropertyOp56
 70
     1
102
RTVSPropertyOp57
 70
     1
102
RTVSPost2010Prop28
280
     0
102
RTVSPost2010PropOp28
 70
     1
102
RTVSPost2010Prop29
280
     1
102
RTVSPost2010PropOp29
 70
     1
102
RTVSPost2010Prop30
280
     1
102
RTVSPost2010PropOp30
 70
     1
102
RTVSPost2010Prop31
280
     0
102
RTVSPost2010PropOp31
 70
     1
102
RTVSPost2010Prop32
280
     0
102
RTVSPost2010PropOp32
 70
     1
102
RTVSPost2010Prop33
280
     0
102
RTVSPost2010PropOp33
 70
     1
102
RTVSPost2010Prop34
280
     0
102
RTVSPost2010PropOp34
 70
     1
102
RTVSPost2010Prop35
280
     0
102
RTVSPost2010PropOp35
 70
     1
102
RTVSPost2010Prop36
280
     0
102
RTVSPost2010PropOp36
 70
     1
102
RTVSPost2010Prop37
 90
       50
102
RTVSPost2010PropOp37
 70
     1
102
RTVSPost2010Prop38
140
0.0
102
RTVSPost2010PropOp38
 70
     1
102
RTVSPost2010Prop39
140
1.0
102
RTVSPost2010PropOp39
 70
     1
102
RTVSPost2010Prop40
 90
        0
102
RTVSPost2010PropOp40
 70
     1
102
RTVSPost2010Prop41ColorIndex
 90
       18
102
RTVSPost2010Prop41ColorRGB
 90
        0
102
RTVSPost2010PropOp41
 70
     1
102
RTVSPost2010Prop42
 90
       50
102
RTVSPost2010PropOp42
 70
     1
102
RTVSPost2010Prop43
 90
        3
102
RTVSPost2010PropOp43
 70
     1
102
RTVSPost2010Prop44ColorIndex
 90
        5
102
RTVSPost2010Prop44ColorRGB
 90
      255
102
RTVSPost2010PropOp44
 70
     1
102
RTVSPost2010Prop45
280
     0
102
RTVSPost2010PropOp45
 70
     1
102
RTVSPost2010Prop46
 90
       50
102
RTVSPost2010PropOp46
 70
     1
102
RTVSPost2010Prop47
 90
       50
102
RTVSPost2010PropOp47
 70
     1
102
RTVSPost2010Prop48
 90
       50
102
RTVSPost2010PropOp48
 70
     1
102
RTVSPost2010Prop49
280
     0
102
RTVSPost2010PropOp49
 70
     1
102
RTVSPost2010Prop50
 90
       50
102
RTVSPost2010PropOp50
 70
     1
102
RTVSPost2010Prop51ColorIndex
 90
      256
102
RTVSPost2010Prop51ColorRGB
 90
-16777216
102
RTVSPost2010PropOp51
 70
     0
102
RTVSPost2010Prop52
140
1.0
102
RTVSPost2010PropOp52
 70
     0
102
RTVSPost2010Prop53
 90
        2
102
RTVSPost2010PropOp53
 70
     1
102
RTVSPost2010Prop54
  1
strokes_ogs.tif
102
RTVSPost2010PropOp54
 70
     1
102
RTVSPost2010Prop55
280
     0
102
RTVSPost2010PropOp55
 70
     1
102
RTVSPost2010Prop56
140
1.0
102
RTVSPost2010PropOp56
 70
     1
102
RTVSPost2010Prop57
140
1.0
102
RTVSPost2010PropOp57
 70
     1
  0
XRECORD
  5
A4
102
{ACAD_REACTORS
330
A3
102
}
330
A3
100
AcDbXrecord
280
     1
102
RTVSPropertyOp0
 70
     1
102
RTVSPropertyOp1
 70
     1
102
RTVSPropertyOp2
 70
     1
102
RTVSPropertyOp3
 70
     1
102
RTVSPropertyOp4
 70
     1
102
RTVSPropertyOp5
 70
     1
102
RTVSPropertyOp6
 70
     1
102
RTVSPropertyOp7
 70
     1
102
RTVSPropertyOp8
 70
     1
102
RTVSPropertyOp9
 70
     1
102
RTVSPropertyOp10
 70
     1
102
RTVSPropertyOp11
 70
     1
102
RTVSPropertyOp12
 70
     1
102
RTVSPropertyOp13
 70
     1
102
RTVSPropertyOp14
 70
     1
102
RTVSPropertyOp15
 70
     1
102
RTVSPropertyOp16
 70
     1
102
RTVSPropertyOp17
 70
     1
102
RTVSPropertyOp18
 70
     1
102
RTVSPropertyOp19
 70
     1
102
RTVSPropertyOp20
 70
     1
102
RTVSPropertyOp21
 70
     1
102
RTVSPropertyOp22
 70
     1
102
RTVSPropertyOp23
 70
     1
102
RTVSPropertyOp24
 70
     1
102
RTVSPropertyOp25
 70
     1
102
RTVSPropertyOp26
 70
     1
102
RTVSPropertyOp27
 70
     1
102
RTVSPropertyOp28
 70
     1
102
RTVSPropertyOp29
 70
     1
102
RTVSPropertyOp30
 70
     1
102
RTVSPropertyOp31
 70
     1
102
RTVSPropertyOp32
 70
     1
102
RTVSPropertyOp33
 70
     1
102
RTVSPropertyOp34
 70
     1
102
RTVSPropertyOp35
 70
     1
102
RTVSPropertyOp36
 70
     1
102
RTVSPropertyOp37
 70
     1
102
RTVSPropertyOp38
 70
     1
102
RTVSPropertyOp39
 70
     1
102
RTVSPropertyOp40
 70
     1
102
RTVSPropertyOp41
 70
     1
102
RTVSPropertyOp42
 70
     1
102
RTVSPropertyOp43
 70
     1
102
RTVSPropertyOp44
 70
     1
102
RTVSPropertyOp45
 70
     1
102
RTVSPropertyOp46
 70
     1
102
RTVSPropertyOp47
 70
     1
102
RTVSPropertyOp48
 70
     1
102
RTVSPropertyOp49
 70
     1
102
RTVSPropertyOp50
 70
     1
102
RTVSPropertyOp51
 70
     0
102
RTVSPropertyOp52
 70
     0
102
RTVSPropertyOp53
 70
     1
102
RTVSPropertyOp54
 70
     1
102
RTVSPropertyOp55
 70
     1
102
RTVSPropertyOp56
 70
     1
102
RTVSPropertyOp57
 70
     1
102
RTVSPost2010Prop28
280
     0
102
RTVSPost2010PropOp28
 70
     1
102
RTVSPost2010Prop29
280
     1
102
RTVSPost2010PropOp29
 70
     1
102
RTVSPost2010Prop30
280
     1
102
RTVSPost2010PropOp30
 70
     1
102
RTVSPost2010Prop31
280
     0
102
RTVSPost2010PropOp31
 70
     1
102
RTVSPost2010Prop32
280
     0
102
RTVSPost2010PropOp32
 70
     1
102
RTVSPost2010Prop33
280
     0
102
RTVSPost2010PropOp33
 70
     1
102
RTVSPost2010Prop34
280
     0
102
RTVSPost2010PropOp34
 70
     1
102
RTVSPost2010Prop35
280
     0
102
RTVSPost2010PropOp35
 70
     1
102
RTVSPost2010Prop36
280
     0
102
RTVSPost2010PropOp36
 70
     1
102
RTVSPost2010Prop37
 90
       50
102
RTVSPost2010PropOp37
 70
     1
102
RTVSPost2010Prop38
140
0.0
102
RTVSPost2010PropOp38
 70
     1
102
RTVSPost2010Prop39
140
1.0
102
RTVSPost2010PropOp39
 70
     1
102
RTVSPost2010Prop40
 90
        0
102
RTVSPost2010PropOp40
 70
     1
102
RTVSPost2010Prop41ColorIndex
 90
       18
102
RTVSPost2010Prop41ColorRGB
 90
        0
102
RTVSPost2010PropOp41
 70
     1
102
RTVSPost2010Prop42
 90
       50
102
RTVSPost2010PropOp42
 70
     1
102
RTVSPost2010Prop43
 90
        3
102
RTVSPost2010PropOp43
 70
     1
102
RTVSPost2010Prop44ColorIndex
 90
        5
102
RTVSPost2010Prop44ColorRGB
 90
      255
102
RTVSPost2010PropOp44
 70
     1
102
RTVSPost2010Prop45
280
     0
102
RTVSPost2010PropOp45
 70
     1
102
RTVSPost2010Prop46
 90
       50
102
RTVSPost2010PropOp46
 70
     1
102
RTVSPost2010Prop47
 90
       50
102
RTVSPost2010PropOp47
 70
     1
102
RTVSPost2010Prop48
 90
       50
102
RTVSPost2010PropOp48
 70
     1
102
RTVSPost2010Prop49
280
     0
102
RTVSPost2010PropOp49
 70
     1
102
RTVSPost2010Prop50
 90
       50
102
RTVSPost2010PropOp50
 70
     1
102
RTVSPost2010Prop51ColorIndex
 90
      256
102
RTVSPost2010Prop51ColorRGB
 90
-16777216
102
RTVSPost2010PropOp51
 70
     0
102
RTVSPost2010Prop52
140
1.0
102
RTVSPost2010PropOp52
 70
     0
102
RTVSPost2010Prop53
 90
        2
102
RTVSPost2010PropOp53
 70
     1
102
RTVSPost2010Prop54
  1
strokes_ogs.tif
102
RTVSPost2010PropOp54
 70
     1
102
RTVSPost2010Prop55
280
     0
102
RTVSPost2010PropOp55
 70
     1
102
RTVSPost2010Prop56
140
1.0
102
RTVSPost2010PropOp56
 70
     1
102
RTVSPost2010Prop57
140
1.0
102
RTVSPost2010PropOp57
 70
     1
  0
XRECORD
  5
98
102
{ACAD_REACTORS
330
97
102
}
330
97
100
AcDbXrecord
280
     1
102
RTVSPropertyOp0
 70
     1
102
RTVSPropertyOp1
 70
     1
102
RTVSPropertyOp2
 70
     1
102
RTVSPropertyOp3
 70
     1
102
RTVSPropertyOp4
 70
     1
102
RTVSPropertyOp5
 70
     1
102
RTVSPropertyOp6
 70
     1
102
RTVSPropertyOp7
 70
     1
102
RTVSPropertyOp8
 70
     1
102
RTVSPropertyOp9
 70
     1
102
RTVSPropertyOp10
 70
     1
102
RTVSPropertyOp11
 70
     1
102
RTVSPropertyOp12
 70
     1
102
RTVSPropertyOp13
 70
     1
102
RTVSPropertyOp14
 70
     1
102
RTVSPropertyOp15
 70
     1
102
RTVSPropertyOp16
 70
     1
102
RTVSPropertyOp17
 70
     1
102
RTVSPropertyOp18
 70
     1
102
RTVSPropertyOp19
 70
     1
102
RTVSPropertyOp20
 70
     1
102
RTVSPropertyOp21
 70
     1
102
RTVSPropertyOp22
 70
     1
102
RTVSPropertyOp23
 70
     1
102
RTVSPropertyOp24
 70
     1
102
RTVSPropertyOp25
 70
     1
102
RTVSPropertyOp26
 70
     1
102
RTVSPropertyOp27
 70
     1
102
RTVSPropertyOp28
 70
     1
102
RTVSPropertyOp29
 70
     1
102
RTVSPropertyOp30
 70
     1
102
RTVSPropertyOp31
 70
     1
102
RTVSPropertyOp32
 70
     1
102
RTVSPropertyOp33
 70
     1
102
RTVSPropertyOp34
 70
     1
102
RTVSPropertyOp35
 70
     1
102
RTVSPropertyOp36
 70
     1
102
RTVSPropertyOp37
 70
     1
102
RTVSPropertyOp38
 70
     1
102
RTVSPropertyOp39
 70
     1
102
RTVSPropertyOp40
 70
     1
102
RTVSPropertyOp41
 70
     1
102
RTVSPropertyOp42
 70
     1
102
RTVSPropertyOp43
 70
     1
102
RTVSPropertyOp44
 70
     1
102
RTVSPropertyOp45
 70
     1
102
RTVSPropertyOp46
 70
     1
102
RTVSPropertyOp47
 70
     1
102
RTVSPropertyOp48
 70
     1
102
RTVSPropertyOp49
 70
     1
102
RTVSPropertyOp50
 70
     1
102
RTVSPropertyOp51
 70
     0
102
RTVSPropertyOp52
 70
     0
102
RTVSPropertyOp53
 70
     1
102
RTVSPropertyOp54
 70
     1
102
RTVSPropertyOp55
 70
     1
102
RTVSPropertyOp56
 70
     1
102
RTVSPropertyOp57
 70
     1
102
RTVSPost2010Prop28
280
     0
102
RTVSPost2010PropOp28
 70
     1
102
RTVSPost2010Prop29
280
     1
102
RTVSPost2010PropOp29
 70
     1
102
RTVSPost2010Prop30
280
     1
102
RTVSPost2010PropOp30
 70
     1
102
RTVSPost2010Prop31
280
     0
102
RTVSPost2010PropOp31
 70
     1
102
RTVSPost2010Prop32
280
     0
102
RTVSPost2010PropOp32
 70
     1
102
RTVSPost2010Prop33
280
     0
102
RTVSPost2010PropOp33
 70
     1
102
RTVSPost2010Prop34
280
     0
102
RTVSPost2010PropOp34
 70
     1
102
RTVSPost2010Prop35
280
     0
102
RTVSPost2010PropOp35
 70
     1
102
RTVSPost2010Prop36
280
     0
102
RTVSPost2010PropOp36
 70
     1
102
RTVSPost2010Prop37
 90
       50
102
RTVSPost2010PropOp37
 70
     1
102
RTVSPost2010Prop38
140
0.0
102
RTVSPost2010PropOp38
 70
     1
102
RTVSPost2010Prop39
140
1.0
102
RTVSPost2010PropOp39
 70
     1
102
RTVSPost2010Prop40
 90
        0
102
RTVSPost2010PropOp40
 70
     1
102
RTVSPost2010Prop41ColorIndex
 90
       18
102
RTVSPost2010Prop41ColorRGB
 90
        0
102
RTVSPost2010PropOp41
 70
     1
102
RTVSPost2010Prop42
 90
       50
102
RTVSPost2010PropOp42
 70
     1
102
RTVSPost2010Prop43
 90
        3
102
RTVSPost2010PropOp43
 70
     1
102
RTVSPost2010Prop44ColorIndex
 90
        5
102
RTVSPost2010Prop44ColorRGB
 90
      255
102
RTVSPost2010PropOp44
 70
     1
102
RTVSPost2010Prop45
280
     0
102
RTVSPost2010PropOp45
 70
     1
102
RTVSPost2010Prop46
 90
       50
102
RTVSPost2010PropOp46
 70
     1
102
RTVSPost2010Prop47
 90
       50
102
RTVSPost2010PropOp47
 70
     1
102
RTVSPost2010Prop48
 90
       50
102
RTVSPost2010PropOp48
 70
     1
102
RTVSPost2010Prop49
280
     0
102
RTVSPost2010PropOp49
 70
     1
102
RTVSPost2010Prop50
 90
       50
102
RTVSPost2010PropOp50
 70
     1
102
RTVSPost2010Prop51ColorIndex
 90
      256
102
RTVSPost2010Prop51ColorRGB
 90
-16777216
102
RTVSPost2010PropOp51
 70
     0
102
RTVSPost2010Prop52
140
1.0
102
RTVSPost2010PropOp52
 70
     0
102
RTVSPost2010Prop53
 90
        2
102
RTVSPost2010PropOp53
 70
     1
102
RTVSPost2010Prop54
  1
strokes_ogs.tif
102
RTVSPost2010PropOp54
 70
     1
102
RTVSPost2010Prop55
280
     0
102
RTVSPost2010PropOp55
 70
     1
102
RTVSPost2010Prop56
140
1.0
102
RTVSPost2010PropOp56
 70
     1
102
RTVSPost2010Prop57
140
1.0
102
RTVSPost2010PropOp57
 70
     1
  0
XRECORD
  5
9A
102
{ACAD_REACTORS
330
99
102
}
330
99
100
AcDbXrecord
280
     1
102
RTVSPropertyOp0
 70
     1
102
RTVSPropertyOp1
 70
     1
102
RTVSPropertyOp2
 70
     1
102
RTVSPropertyOp3
 70
     1
102
RTVSPropertyOp4
 70
     1
102
RTVSPropertyOp5
 70
     1
102
RTVSPropertyOp6
 70
     1
102
RTVSPropertyOp7
 70
     1
102
RTVSPropertyOp8
 70
     1
102
RTVSPropertyOp9
 70
     1
102
RTVSPropertyOp10
 70
     1
102
RTVSPropertyOp11
 70
     1
102
RTVSPropertyOp12
 70
     1
102
RTVSPropertyOp13
 70
     1
102
RTVSPropertyOp14
 70
     1
102
RTVSPropertyOp15
 70
     1
102
RTVSPropertyOp16
 70
     1
102
RTVSPropertyOp17
 70
     1
102
RTVSPropertyOp18
 70
     1
102
RTVSPropertyOp19
 70
     1
102
RTVSPropertyOp20
 70
     1
102
RTVSPropertyOp21
 70
     1
102
RTVSPropertyOp22
 70
     1
102
RTVSPropertyOp23
 70
     1
102
RTVSPropertyOp24
 70
     1
102
RTVSPropertyOp25
 70
     1
102
RTVSPropertyOp26
 70
     1
102
RTVSPropertyOp27
 70
     1
102
RTVSPropertyOp28
 70
     1
102
RTVSPropertyOp29
 70
     1
102
RTVSPropertyOp30
 70
     1
102
RTVSPropertyOp31
 70
     1
102
RTVSPropertyOp32
 70
     1
102
RTVSPropertyOp33
 70
     1
102
RTVSPropertyOp34
 70
     1
102
RTVSPropertyOp35
 70
     1
102
RTVSPropertyOp36
 70
     1
102
RTVSPropertyOp37
 70
     1
102
RTVSPropertyOp38
 70
     1
102
RTVSPropertyOp39
 70
     1
102
RTVSPropertyOp40
 70
     1
102
RTVSPropertyOp41
 70
     1
102
RTVSPropertyOp42
 70
     1
102
RTVSPropertyOp43
 70
     1
102
RTVSPropertyOp44
 70
     1
102
RTVSPropertyOp45
 70
     1
102
RTVSPropertyOp46
 70
     1
102
RTVSPropertyOp47
 70
     1
102
RTVSPropertyOp48
 70
     1
102
RTVSPropertyOp49
 70
     1
102
RTVSPropertyOp50
 70
     1
102
RTVSPropertyOp51
 70
     0
102
RTVSPropertyOp52
 70
     0
102
RTVSPropertyOp53
 70
     1
102
RTVSPropertyOp54
 70
     1
102
RTVSPropertyOp55
 70
     1
102
RTVSPropertyOp56
 70
     1
102
RTVSPropertyOp57
 70
     1
102
RTVSPost2010Prop28
280
     0
102
RTVSPost2010PropOp28
 70
     1
102
RTVSPost2010Prop29
280
     1
102
RTVSPost2010PropOp29
 70
     1
102
RTVSPost2010Prop30
280
     1
102
RTVSPost2010PropOp30
 70
     1
102
RTVSPost2010Prop31
280
     0
102
RTVSPost2010PropOp31
 70
     1
102
RTVSPost2010Prop32
280
     0
102
RTVSPost2010PropOp32
 70
     1
102
RTVSPost2010Prop33
280
     0
102
RTVSPost2010PropOp33
 70
     1
102
RTVSPost2010Prop34
280
     0
102
RTVSPost2010PropOp34
 70
     1
102
RTVSPost2010Prop35
280
     0
102
RTVSPost2010PropOp35
 70
     1
102
RTVSPost2010Prop36
280
     0
102
RTVSPost2010PropOp36
 70
     1
102
RTVSPost2010Prop37
 90
       50
102
RTVSPost2010PropOp37
 70
     1
102
RTVSPost2010Prop38
140
0.0
102
RTVSPost2010PropOp38
 70
     1
102
RTVSPost2010Prop39
140
1.0
102
RTVSPost2010PropOp39
 70
     1
102
RTVSPost2010Prop40
 90
        0
102
RTVSPost2010PropOp40
 70
     1
102
RTVSPost2010Prop41ColorIndex
 90
       18
102
RTVSPost2010Prop41ColorRGB
 90
        0
102
RTVSPost2010PropOp41
 70
     1
102
RTVSPost2010Prop42
 90
       50
102
RTVSPost2010PropOp42
 70
     1
102
RTVSPost2010Prop43
 90
        3
102
RTVSPost2010PropOp43
 70
     1
102
RTVSPost2010Prop44ColorIndex
 90
        5
102
RTVSPost2010Prop44ColorRGB
 90
      255
102
RTVSPost2010PropOp44
 70
     1
102
RTVSPost2010Prop45
280
     0
102
RTVSPost2010PropOp45
 70
     1
102
RTVSPost2010Prop46
 90
       50
102
RTVSPost2010PropOp46
 70
     1
102
RTVSPost2010Prop47
 90
       50
102
RTVSPost2010PropOp47
 70
     1
102
RTVSPost2010Prop48
 90
       50
102
RTVSPost2010PropOp48
 70
     1
102
RTVSPost2010Prop49
280
     0
102
RTVSPost2010PropOp49
 70
     1
102
RTVSPost2010Prop50
 90
       50
102
RTVSPost2010PropOp50
 70
     1
102
RTVSPost2010Prop51ColorIndex
 90
      256
102
RTVSPost2010Prop51ColorRGB
 90
-16777216
102
RTVSPost2010PropOp51
 70
     0
102
RTVSPost2010Prop52
140
1.0
102
RTVSPost2010PropOp52
 70
     0
102
RTVSPost2010Prop53
 90
        2
102
RTVSPost2010PropOp53
 70
     1
102
RTVSPost2010Prop54
  1
strokes_ogs.tif
102
RTVSPost2010PropOp54
 70
     1
102
RTVSPost2010Prop55
280
     0
102
RTVSPost2010PropOp55
 70
     1
102
RTVSPost2010Prop56
140
1.0
102
RTVSPost2010PropOp56
 70
     1
102
RTVSPost2010Prop57
140
1.0
102
RTVSPost2010PropOp57
 70
     1
  0
XRECORD
  5
AA
102
{ACAD_REACTORS
330
A9
102
}
330
A9
100
AcDbXrecord
280
     1
102
RTVSPropertyOp0
 70
     0
102
RTVSPropertyOp1
 70
     0
102
RTVSPropertyOp2
 70
     0
102
RTVSPropertyOp3
 70
     0
102
RTVSPropertyOp4
 70
     0
102
RTVSPropertyOp5
 70
     0
102
RTVSPropertyOp6
 70
     0
102
RTVSPropertyOp7
 70
     0
102
RTVSPropertyOp8
 70
     0
102
RTVSPropertyOp9
 70
     0
102
RTVSPropertyOp10
 70
     0
102
RTVSPropertyOp11
 70
     0
102
RTVSPropertyOp12
 70
     0
102
RTVSPropertyOp13
 70
     0
102
RTVSPropertyOp14
 70
     2
102
RTVSPropertyOp15
 70
     0
102
RTVSPropertyOp16
 70
     0
102
RTVSPropertyOp17
 70
     0
102
RTVSPropertyOp18
 70
     0
102
RTVSPropertyOp19
 70
     0
102
RTVSPropertyOp20
 70
     0
102
RTVSPropertyOp21
 70
     0
102
RTVSPropertyOp22
 70
     0
102
RTVSPropertyOp23
 70
     0
102
RTVSPropertyOp24
 70
     0
102
RTVSPropertyOp25
 70
     0
102
RTVSPropertyOp26
 70
     0
102
RTVSPropertyOp27
 70
     0
102
RTVSPropertyOp28
 70
     0
102
RTVSPropertyOp29
 70
     0
102
RTVSPropertyOp30
 70
     0
102
RTVSPropertyOp31
 70
     0
102
RTVSPropertyOp32
 70
     0
102
RTVSPropertyOp33
 70
     0
102
RTVSPropertyOp34
 70
     0
102
RTVSPropertyOp35
 70
     0
102
RTVSPropertyOp36
 70
     0
102
RTVSPropertyOp37
 70
     0
102
RTVSPropertyOp38
 70
     0
102
RTVSPropertyOp39
 70
     0
102
RTVSPropertyOp40
 70
     0
102
RTVSPropertyOp41
 70
     0
102
RTVSPropertyOp42
 70
     0
102
RTVSPropertyOp43
 70
     0
102
RTVSPropertyOp44
 70
     0
102
RTVSPropertyOp45
 70
     0
102
RTVSPropertyOp46
 70
     0
102
RTVSPropertyOp47
 70
     0
102
RTVSPropertyOp48
 70
     0
102
RTVSPropertyOp49
 70
     0
102
RTVSPropertyOp50
 70
     0
102
RTVSPropertyOp51
 70
     0
102
RTVSPropertyOp52
 70
     0
102
RTVSPropertyOp53
 70
     0
102
RTVSPropertyOp54
 70
     0
102
RTVSPropertyOp55
 70
     0
102
RTVSPropertyOp56
 70
     0
102
RTVSPropertyOp57
 70
     0
102
RTVSPost2010Prop28
280
     0
102
RTVSPost2010PropOp28
 70
     0
102
RTVSPost2010Prop29
280
     1
102
RTVSPost2010PropOp29
 70
     0
102
RTVSPost2010Prop30
280
     1
102
RTVSPost2010PropOp30
 70
     0
102
RTVSPost2010Prop31
280
     0
102
RTVSPost2010PropOp31
 70
     0
102
RTVSPost2010Prop32
280
     0
102
RTVSPost2010PropOp32
 70
     0
102
RTVSPost2010Prop33
280
     0
102
RTVSPost2010PropOp33
 70
     0
102
RTVSPost2010Prop34
280
     0
102
RTVSPost2010PropOp34
 70
     0
102
RTVSPost2010Prop35
280
     0
102
RTVSPost2010PropOp35
 70
     0
102
RTVSPost2010Prop36
280
     0
102
RTVSPost2010PropOp36
 70
     0
102
RTVSPost2010Prop37
 90
       50
102
RTVSPost2010PropOp37
 70
     0
102
RTVSPost2010Prop38
140
0.0
102
RTVSPost2010PropOp38
 70
     0
102
RTVSPost2010Prop39
140
1.0
102
RTVSPost2010PropOp39
 70
     0
102
RTVSPost2010Prop40
 90
        0
102
RTVSPost2010PropOp40
 70
     0
102
RTVSPost2010Prop41ColorIndex
 90
       18
102
RTVSPost2010Prop41ColorRGB
 90
        0
102
RTVSPost2010PropOp41
 70
     0
102
RTVSPost2010Prop42
 90
       50
102
RTVSPost2010PropOp42
 70
     0
102
RTVSPost2010Prop43
 90
        3
102
RTVSPost2010PropOp43
 70
     0
102
RTVSPost2010Prop44ColorIndex
 90
        5
102
RTVSPost2010Prop44ColorRGB
 90
      255
102
RTVSPost2010PropOp44
 70
     0
102
RTVSPost2010Prop45
280
     0
102
RTVSPost2010PropOp45
 70
     0
102
RTVSPost2010Prop46
 90
       50
102
RTVSPost2010PropOp46
 70
     0
102
RTVSPost2010Prop47
 90
       50
102
RTVSPost2010PropOp47
 70
     0
102
RTVSPost2010Prop48
 90
       50
102
RTVSPost2010PropOp48
 70
     0
102
RTVSPost2010Prop49
280
     0
102
RTVSPost2010PropOp49
 70
     0
102
RTVSPost2010Prop50
 90
       50
102
RTVSPost2010PropOp50
 70
     0
102
RTVSPost2010Prop51ColorIndex
 90
      256
102
RTVSPost2010Prop51ColorRGB
 90
-16777216
102
RTVSPost2010PropOp51
 70
     0
102
RTVSPost2010Prop52
140
1.0
102
RTVSPost2010PropOp52
 70
     0
102
RTVSPost2010Prop53
 90
        2
102
RTVSPost2010PropOp53
 70
     0
102
RTVSPost2010Prop54
  1
strokes_ogs.tif
102
RTVSPost2010PropOp54
 70
     0
102
RTVSPost2010Prop55
280
     0
102
RTVSPost2010PropOp55
 70
     0
102
RTVSPost2010Prop56
140
1.0
102
RTVSPost2010PropOp56
 70
     0
102
RTVSPost2010Prop57
140
1.0
102
RTVSPost2010PropOp57
 70
     0
  0
XRECORD
  5
A2
102
{ACAD_REACTORS
330
A1
102
}
330
A1
100
AcDbXrecord
280
     1
102
RTVSPropertyOp0
 70
     1
102
RTVSPropertyOp1
 70
     1
102
RTVSPropertyOp2
 70
     1
102
RTVSPropertyOp3
 70
     1
102
RTVSPropertyOp4
 70
     1
102
RTVSPropertyOp5
 70
     1
102
RTVSPropertyOp6
 70
     1
102
RTVSPropertyOp7
 70
     1
102
RTVSPropertyOp8
 70
     1
102
RTVSPropertyOp9
 70
     1
102
RTVSPropertyOp10
 70
     1
102
RTVSPropertyOp11
 70
     1
102
RTVSPropertyOp12
 70
     1
102
RTVSPropertyOp13
 70
     1
102
RTVSPropertyOp14
 70
     1
102
RTVSPropertyOp15
 70
     1
102
RTVSPropertyOp16
 70
     1
102
RTVSPropertyOp17
 70
     1
102
RTVSPropertyOp18
 70
     1
102
RTVSPropertyOp19
 70
     1
102
RTVSPropertyOp20
 70
     1
102
RTVSPropertyOp21
 70
     1
102
RTVSPropertyOp22
 70
     1
102
RTVSPropertyOp23
 70
     1
102
RTVSPropertyOp24
 70
     1
102
RTVSPropertyOp25
 70
     1
102
RTVSPropertyOp26
 70
     1
102
RTVSPropertyOp27
 70
     1
102
RTVSPropertyOp28
 70
     1
102
RTVSPropertyOp29
 70
     1
102
RTVSPropertyOp30
 70
     1
102
RTVSPropertyOp31
 70
     1
102
RTVSPropertyOp32
 70
     1
102
RTVSPropertyOp33
 70
     1
102
RTVSPropertyOp34
 70
     1
102
RTVSPropertyOp35
 70
     1
102
RTVSPropertyOp36
 70
     1
102
RTVSPropertyOp37
 70
     1
102
RTVSPropertyOp38
 70
     1
102
RTVSPropertyOp39
 70
     1
102
RTVSPropertyOp40
 70
     1
102
RTVSPropertyOp41
 70
     1
102
RTVSPropertyOp42
 70
     1
102
RTVSPropertyOp43
 70
     1
102
RTVSPropertyOp44
 70
     1
102
RTVSPropertyOp45
 70
     1
102
RTVSPropertyOp46
 70
     1
102
RTVSPropertyOp47
 70
     1
102
RTVSPropertyOp48
 70
     1
102
RTVSPropertyOp49
 70
     1
102
RTVSPropertyOp50
 70
     1
102
RTVSPropertyOp51
 70
     0
102
RTVSPropertyOp52
 70
     0
102
RTVSPropertyOp53
 70
     1
102
RTVSPropertyOp54
 70
     1
102
RTVSPropertyOp55
 70
     1
102
RTVSPropertyOp56
 70
     1
102
RTVSPropertyOp57
 70
     1
102
RTVSPost2010Prop28
280
     0
102
RTVSPost2010PropOp28
 70
     1
102
RTVSPost2010Prop29
280
     1
102
RTVSPost2010PropOp29
 70
     1
102
RTVSPost2010Prop30
280
     1
102
RTVSPost2010PropOp30
 70
     1
102
RTVSPost2010Prop31
280
     0
102
RTVSPost2010PropOp31
 70
     1
102
RTVSPost2010Prop32
280
     0
102
RTVSPost2010PropOp32
 70
     1
102
RTVSPost2010Prop33
280
     0
102
RTVSPost2010PropOp33
 70
     1
102
RTVSPost2010Prop34
280
     0
102
RTVSPost2010PropOp34
 70
     1
102
RTVSPost2010Prop35
280
     0
102
RTVSPost2010PropOp35
 70
     1
102
RTVSPost2010Prop36
280
     0
102
RTVSPost2010PropOp36
 70
     1
102
RTVSPost2010Prop37
 90
       50
102
RTVSPost2010PropOp37
 70
     1
102
RTVSPost2010Prop38
140
0.0
102
RTVSPost2010PropOp38
 70
     1
102
RTVSPost2010Prop39
140
1.0
102
RTVSPost2010PropOp39
 70
     1
102
RTVSPost2010Prop40
 90
        0
102
RTVSPost2010PropOp40
 70
     1
102
RTVSPost2010Prop41ColorIndex
 90
       18
102
RTVSPost2010Prop41ColorRGB
 90
        0
102
RTVSPost2010PropOp41
 70
     1
102
RTVSPost2010Prop42
 90
       50
102
RTVSPost2010PropOp42
 70
     1
102
RTVSPost2010Prop43
 90
        3
102
RTVSPost2010PropOp43
 70
     1
102
RTVSPost2010Prop44ColorIndex
 90
        5
102
RTVSPost2010Prop44ColorRGB
 90
      255
102
RTVSPost2010PropOp44
 70
     1
102
RTVSPost2010Prop45
280
     0
102
RTVSPost2010PropOp45
 70
     1
102
RTVSPost2010Prop46
 90
       50
102
RTVSPost2010PropOp46
 70
     1
102
RTVSPost2010Prop47
 90
       50
102
RTVSPost2010PropOp47
 70
     1
102
RTVSPost2010Prop48
 90
       50
102
RTVSPost2010PropOp48
 70
     1
102
RTVSPost2010Prop49
280
     0
102
RTVSPost2010PropOp49
 70
     1
102
RTVSPost2010Prop50
 90
       50
102
RTVSPost2010PropOp50
 70
     1
102
RTVSPost2010Prop51ColorIndex
 90
      256
102
RTVSPost2010Prop51ColorRGB
 90
-16777216
102
RTVSPost2010PropOp51
 70
     0
102
RTVSPost2010Prop52
140
1.0
102
RTVSPost2010PropOp52
 70
     0
102
RTVSPost2010Prop53
 90
        2
102
RTVSPost2010PropOp53
 70
     1
102
RTVSPost2010Prop54
  1
strokes_ogs.tif
102
RTVSPost2010PropOp54
 70
     1
102
RTVSPost2010Prop55
280
     0
102
RTVSPost2010PropOp55
 70
     1
102
RTVSPost2010Prop56
140
1.0
102
RTVSPost2010PropOp56
 70
     1
102
RTVSPost2010Prop57
140
1.0
102
RTVSPost2010PropOp57
 70
     1
  0
XRECORD
  5
86
102
{ACAD_REACTORS
330
85
102
}
330
85
100
AcDbXrecord
280
     1
102
RTVSPropertyOp0
 70
     1
102
RTVSPropertyOp1
 70
     1
102
RTVSPropertyOp2
 70
     1
102
RTVSPropertyOp3
 70
     1
102
RTVSPropertyOp4
 70
     1
102
RTVSPropertyOp5
 70
     1
102
RTVSPropertyOp6
 70
     1
102
RTVSPropertyOp7
 70
     1
102
RTVSPropertyOp8
 70
     1
102
RTVSPropertyOp9
 70
     1
102
RTVSPropertyOp10
 70
     1
102
RTVSPropertyOp11
 70
     1
102
RTVSPropertyOp12
 70
     1
102
RTVSPropertyOp13
 70
     1
102
RTVSPropertyOp14
 70
     1
102
RTVSPropertyOp15
 70
     1
102
RTVSPropertyOp16
 70
     1
102
RTVSPropertyOp17
 70
     1
102
RTVSPropertyOp18
 70
     1
102
RTVSPropertyOp19
 70
     1
102
RTVSPropertyOp20
 70
     1
102
RTVSPropertyOp21
 70
     1
102
RTVSPropertyOp22
 70
     1
102
RTVSPropertyOp23
 70
     1
102
RTVSPropertyOp24
 70
     1
102
RTVSPropertyOp25
 70
     1
102
RTVSPropertyOp26
 70
     1
102
RTVSPropertyOp27
 70
     1
102
RTVSPropertyOp28
 70
     1
102
RTVSPropertyOp29
 70
     1
102
RTVSPropertyOp30
 70
     1
102
RTVSPropertyOp31
 70
     1
102
RTVSPropertyOp32
 70
     1
102
RTVSPropertyOp33
 70
     1
102
RTVSPropertyOp34
 70
     1
102
RTVSPropertyOp35
 70
     1
102
RTVSPropertyOp36
 70
     1
102
RTVSPropertyOp37
 70
     1
102
RTVSPropertyOp38
 70
     1
102
RTVSPropertyOp39
 70
     1
102
RTVSPropertyOp40
 70
     1
102
RTVSPropertyOp41
 70
     1
102
RTVSPropertyOp42
 70
     1
102
RTVSPropertyOp43
 70
     1
102
RTVSPropertyOp44
 70
     1
102
RTVSPropertyOp45
 70
     1
102
RTVSPropertyOp46
 70
     1
102
RTVSPropertyOp47
 70
     1
102
RTVSPropertyOp48
 70
     1
102
RTVSPropertyOp49
 70
     1
102
RTVSPropertyOp50
 70
     1
102
RTVSPropertyOp51
 70
     0
102
RTVSPropertyOp52
 70
     0
102
RTVSPropertyOp53
 70
     1
102
RTVSPropertyOp54
 70
     1
102
RTVSPropertyOp55
 70
     1
102
RTVSPropertyOp56
 70
     1
102
RTVSPropertyOp57
 70
     1
102
RTVSPost2010Prop28
280
     0
102
RTVSPost2010PropOp28
 70
     1
102
RTVSPost2010Prop29
280
     1
102
RTVSPost2010PropOp29
 70
     1
102
RTVSPost2010Prop30
280
     1
102
RTVSPost2010PropOp30
 70
     1
102
RTVSPost2010Prop31
280
     0
102
RTVSPost2010PropOp31
 70
     1
102
RTVSPost2010Prop32
280
     0
102
RTVSPost2010PropOp32
 70
     1
102
RTVSPost2010Prop33
280
     0
102
RTVSPost2010PropOp33
 70
     1
102
RTVSPost2010Prop34
280
     0
102
RTVSPost2010PropOp34
 70
     1
102
RTVSPost2010Prop35
280
     0
102
RTVSPost2010PropOp35
 70
     1
102
RTVSPost2010Prop36
280
     0
102
RTVSPost2010PropOp36
 70
     1
102
RTVSPost2010Prop37
 90
       50
102
RTVSPost2010PropOp37
 70
     1
102
RTVSPost2010Prop38
140
0.0
102
RTVSPost2010PropOp38
 70
     1
102
RTVSPost2010Prop39
140
1.0
102
RTVSPost2010PropOp39
 70
     1
102
RTVSPost2010Prop40
 90
        0
102
RTVSPost2010PropOp40
 70
     1
102
RTVSPost2010Prop41ColorIndex
 90
       18
102
RTVSPost2010Prop41ColorRGB
 90
        0
102
RTVSPost2010PropOp41
 70
     1
102
RTVSPost2010Prop42
 90
       50
102
RTVSPost2010PropOp42
 70
     1
102
RTVSPost2010Prop43
 90
        3
102
RTVSPost2010PropOp43
 70
     1
102
RTVSPost2010Prop44ColorIndex
 90
        5
102
RTVSPost2010Prop44ColorRGB
 90
      255
102
RTVSPost2010PropOp44
 70
     1
102
RTVSPost2010Prop45
280
     0
102
RTVSPost2010PropOp45
 70
     1
102
RTVSPost2010Prop46
 90
       50
102
RTVSPost2010PropOp46
 70
     1
102
RTVSPost2010Prop47
 90
       50
102
RTVSPost2010PropOp47
 70
     1
102
RTVSPost2010Prop48
 90
       50
102
RTVSPost2010PropOp48
 70
     1
102
RTVSPost2010Prop49
280
     0
102
RTVSPost2010PropOp49
 70
     1
102
RTVSPost2010Prop50
 90
       50
102
RTVSPost2010PropOp50
 70
     1
102
RTVSPost2010Prop51ColorIndex
 90
      256
102
RTVSPost2010Prop51ColorRGB
 90
-16777216
102
RTVSPost2010PropOp51
 70
     0
102
RTVSPost2010Prop52
140
1.0
102
RTVSPost2010PropOp52
 70
     0
102
RTVSPost2010Prop53
 90
        2
102
RTVSPost2010PropOp53
 70
     1
102
RTVSPost2010Prop54
  1
strokes_ogs.tif
102
RTVSPost2010PropOp54
 70
     1
102
RTVSPost2010Prop55
280
     0
102
RTVSPost2010PropOp55
 70
     1
102
RTVSPost2010Prop56
140
1.0
102
RTVSPost2010PropOp56
 70
     1
102
RTVSPost2010Prop57
140
1.0
102
RTVSPost2010PropOp57
 70
     1
  0
XRECORD
  5
88
102
{ACAD_REACTORS
330
87
102
}
330
87
100
AcDbXrecord
280
     1
102
RTVSPropertyOp0
 70
     1
102
RTVSPropertyOp1
 70
     1
102
RTVSPropertyOp2
 70
     1
102
RTVSPropertyOp3
 70
     1
102
RTVSPropertyOp4
 70
     1
102
RTVSPropertyOp5
 70
     1
102
RTVSPropertyOp6
 70
     1
102
RTVSPropertyOp7
 70
     1
102
RTVSPropertyOp8
 70
     1
102
RTVSPropertyOp9
 70
     1
102
RTVSPropertyOp10
 70
     1
102
RTVSPropertyOp11
 70
     1
102
RTVSPropertyOp12
 70
     1
102
RTVSPropertyOp13
 70
     1
102
RTVSPropertyOp14
 70
     1
102
RTVSPropertyOp15
 70
     1
102
RTVSPropertyOp16
 70
     1
102
RTVSPropertyOp17
 70
     1
102
RTVSPropertyOp18
 70
     1
102
RTVSPropertyOp19
 70
     1
102
RTVSPropertyOp20
 70
     1
102
RTVSPropertyOp21
 70
     1
102
RTVSPropertyOp22
 70
     1
102
RTVSPropertyOp23
 70
     1
102
RTVSPropertyOp24
 70
     1
102
RTVSPropertyOp25
 70
     1
102
RTVSPropertyOp26
 70
     1
102
RTVSPropertyOp27
 70
     1
102
RTVSPropertyOp28
 70
     1
102
RTVSPropertyOp29
 70
     1
102
RTVSPropertyOp30
 70
     1
102
RTVSPropertyOp31
 70
     1
102
RTVSPropertyOp32
 70
     1
102
RTVSPropertyOp33
 70
     1
102
RTVSPropertyOp34
 70
     1
102
RTVSPropertyOp35
 70
     1
102
RTVSPropertyOp36
 70
     1
102
RTVSPropertyOp37
 70
     1
102
RTVSPropertyOp38
 70
     1
102
RTVSPropertyOp39
 70
     1
102
RTVSPropertyOp40
 70
     1
102
RTVSPropertyOp41
 70
     1
102
RTVSPropertyOp42
 70
     1
102
RTVSPropertyOp43
 70
     1
102
RTVSPropertyOp44
 70
     1
102
RTVSPropertyOp45
 70
     1
102
RTVSPropertyOp46
 70
     1
102
RTVSPropertyOp47
 70
     1
102
RTVSPropertyOp48
 70
     1
102
RTVSPropertyOp49
 70
     1
102
RTVSPropertyOp50
 70
     1
102
RTVSPropertyOp51
 70
     0
102
RTVSPropertyOp52
 70
     0
102
RTVSPropertyOp53
 70
     1
102
RTVSPropertyOp54
 70
     1
102
RTVSPropertyOp55
 70
     1
102
RTVSPropertyOp56
 70
     1
102
RTVSPropertyOp57
 70
     1
102
RTVSPost2010Prop28
280
     0
102
RTVSPost2010PropOp28
 70
     1
102
RTVSPost2010Prop29
280
     1
102
RTVSPost2010PropOp29
 70
     1
102
RTVSPost2010Prop30
280
     1
102
RTVSPost2010PropOp30
 70
     1
102
RTVSPost2010Prop31
280
     0
102
RTVSPost2010PropOp31
 70
     1
102
RTVSPost2010Prop32
280
     0
102
RTVSPost2010PropOp32
 70
     1
102
RTVSPost2010Prop33
280
     0
102
RTVSPost2010PropOp33
 70
     1
102
RTVSPost2010Prop34
280
     0
102
RTVSPost2010PropOp34
 70
     1
102
RTVSPost2010Prop35
280
     0
102
RTVSPost2010PropOp35
 70
     1
102
RTVSPost2010Prop36
280
     0
102
RTVSPost2010PropOp36
 70
     1
102
RTVSPost2010Prop37
 90
       50
102
RTVSPost2010PropOp37
 70
     1
102
RTVSPost2010Prop38
140
0.0
102
RTVSPost2010PropOp38
 70
     1
102
RTVSPost2010Prop39
140
1.0
102
RTVSPost2010PropOp39
 70
     1
102
RTVSPost2010Prop40
 90
        0
102
RTVSPost2010PropOp40
 70
     1
102
RTVSPost2010Prop41ColorIndex
 90
       18
102
RTVSPost2010Prop41ColorRGB
 90
        0
102
RTVSPost2010PropOp41
 70
     1
102
RTVSPost2010Prop42
 90
       50
102
RTVSPost2010PropOp42
 70
     1
102
RTVSPost2010Prop43
 90
        3
102
RTVSPost2010PropOp43
 70
     1
102
RTVSPost2010Prop44ColorIndex
 90
        5
102
RTVSPost2010Prop44ColorRGB
 90
      255
102
RTVSPost2010PropOp44
 70
     1
102
RTVSPost2010Prop45
280
     0
102
RTVSPost2010PropOp45
 70
     1
102
RTVSPost2010Prop46
 90
       50
102
RTVSPost2010PropOp46
 70
     1
102
RTVSPost2010Prop47
 90
       50
102
RTVSPost2010PropOp47
 70
     1
102
RTVSPost2010Prop48
 90
       50
102
RTVSPost2010PropOp48
 70
     1
102
RTVSPost2010Prop49
280
     0
102
RTVSPost2010PropOp49
 70
     1
102
RTVSPost2010Prop50
 90
       50
102
RTVSPost2010PropOp50
 70
     1
102
RTVSPost2010Prop51ColorIndex
 90
      256
102
RTVSPost2010Prop51ColorRGB
 90
-16777216
102
RTVSPost2010PropOp51
 70
     0
102
RTVSPost2010Prop52
140
1.0
102
RTVSPost2010PropOp52
 70
     0
102
RTVSPost2010Prop53
 90
        2
102
RTVSPost2010PropOp53
 70
     1
102
RTVSPost2010Prop54
  1
strokes_ogs.tif
102
RTVSPost2010PropOp54
 70
     1
102
RTVSPost2010Prop55
280
     0
102
RTVSPost2010PropOp55
 70
     1
102
RTVSPost2010Prop56
140
1.0
102
RTVSPost2010PropOp56
 70
     1
102
RTVSPost2010Prop57
140
1.0
102
RTVSPost2010PropOp57
 70
     1
  0
XRECORD
  5
8A
102
{ACAD_REACTORS
330
89
102
}
330
89
100
AcDbXrecord
280
     1
102
RTVSPropertyOp0
 70
     1
102
RTVSPropertyOp1
 70
     1
102
RTVSPropertyOp2
 70
     1
102
RTVSPropertyOp3
 70
     1
102
RTVSPropertyOp4
 70
     1
102
RTVSPropertyOp5
 70
     1
102
RTVSPropertyOp6
 70
     1
102
RTVSPropertyOp7
 70
     1
102
RTVSPropertyOp8
 70
     1
102
RTVSPropertyOp9
 70
     1
102
RTVSPropertyOp10
 70
     1
102
RTVSPropertyOp11
 70
     1
102
RTVSPropertyOp12
 70
     1
102
RTVSPropertyOp13
 70
     1
102
RTVSPropertyOp14
 70
     1
102
RTVSPropertyOp15
 70
     1
102
RTVSPropertyOp16
 70
     1
102
RTVSPropertyOp17
 70
     1
102
RTVSPropertyOp18
 70
     1
102
RTVSPropertyOp19
 70
     1
102
RTVSPropertyOp20
 70
     1
102
RTVSPropertyOp21
 70
     1
102
RTVSPropertyOp22
 70
     1
102
RTVSPropertyOp23
 70
     1
102
RTVSPropertyOp24
 70
     1
102
RTVSPropertyOp25
 70
     1
102
RTVSPropertyOp26
 70
     1
102
RTVSPropertyOp27
 70
     1
102
RTVSPropertyOp28
 70
     1
102
RTVSPropertyOp29
 70
     1
102
RTVSPropertyOp30
 70
     1
102
RTVSPropertyOp31
 70
     1
102
RTVSPropertyOp32
 70
     1
102
RTVSPropertyOp33
 70
     1
102
RTVSPropertyOp34
 70
     1
102
RTVSPropertyOp35
 70
     1
102
RTVSPropertyOp36
 70
     1
102
RTVSPropertyOp37
 70
     1
102
RTVSPropertyOp38
 70
     1
102
RTVSPropertyOp39
 70
     1
102
RTVSPropertyOp40
 70
     1
102
RTVSPropertyOp41
 70
     1
102
RTVSPropertyOp42
 70
     1
102
RTVSPropertyOp43
 70
     1
102
RTVSPropertyOp44
 70
     1
102
RTVSPropertyOp45
 70
     1
102
RTVSPropertyOp46
 70
     1
102
RTVSPropertyOp47
 70
     1
102
RTVSPropertyOp48
 70
     1
102
RTVSPropertyOp49
 70
     1
102
RTVSPropertyOp50
 70
     1
102
RTVSPropertyOp51
 70
     0
102
RTVSPropertyOp52
 70
     0
102
RTVSPropertyOp53
 70
     1
102
RTVSPropertyOp54
 70
     1
102
RTVSPropertyOp55
 70
     1
102
RTVSPropertyOp56
 70
     1
102
RTVSPropertyOp57
 70
     1
102
RTVSPost2010Prop28
280
     0
102
RTVSPost2010PropOp28
 70
     1
102
RTVSPost2010Prop29
280
     1
102
RTVSPost2010PropOp29
 70
     1
102
RTVSPost2010Prop30
280
     1
102
RTVSPost2010PropOp30
 70
     1
102
RTVSPost2010Prop31
280
     0
102
RTVSPost2010PropOp31
 70
     1
102
RTVSPost2010Prop32
280
     0
102
RTVSPost2010PropOp32
 70
     1
102
RTVSPost2010Prop33
280
     0
102
RTVSPost2010PropOp33
 70
     1
102
RTVSPost2010Prop34
280
     0
102
RTVSPost2010PropOp34
 70
     1
102
RTVSPost2010Prop35
280
     0
102
RTVSPost2010PropOp35
 70
     1
102
RTVSPost2010Prop36
280
     0
102
RTVSPost2010PropOp36
 70
     1
102
RTVSPost2010Prop37
 90
       50
102
RTVSPost2010PropOp37
 70
     1
102
RTVSPost2010Prop38
140
0.0
102
RTVSPost2010PropOp38
 70
     1
102
RTVSPost2010Prop39
140
1.0
102
RTVSPost2010PropOp39
 70
     1
102
RTVSPost2010Prop40
 90
        0
102
RTVSPost2010PropOp40
 70
     1
102
RTVSPost2010Prop41ColorIndex
 90
       18
102
RTVSPost2010Prop41ColorRGB
 90
        0
102
RTVSPost2010PropOp41
 70
     1
102
RTVSPost2010Prop42
 90
       50
102
RTVSPost2010PropOp42
 70
     1
102
RTVSPost2010Prop43
 90
        3
102
RTVSPost2010PropOp43
 70
     1
102
RTVSPost2010Prop44ColorIndex
 90
        5
102
RTVSPost2010Prop44ColorRGB
 90
      255
102
RTVSPost2010PropOp44
 70
     1
102
RTVSPost2010Prop45
280
     0
102
RTVSPost2010PropOp45
 70
     1
102
RTVSPost2010Prop46
 90
       50
102
RTVSPost2010PropOp46
 70
     1
102
RTVSPost2010Prop47
 90
       50
102
RTVSPost2010PropOp47
 70
     1
102
RTVSPost2010Prop48
 90
       50
102
RTVSPost2010PropOp48
 70
     1
102
RTVSPost2010Prop49
280
     0
102
RTVSPost2010PropOp49
 70
     1
102
RTVSPost2010Prop50
 90
       50
102
RTVSPost2010PropOp50
 70
     1
102
RTVSPost2010Prop51ColorIndex
 90
      256
102
RTVSPost2010Prop51ColorRGB
 90
-16777216
102
RTVSPost2010PropOp51
 70
     0
102
RTVSPost2010Prop52
140
1.0
102
RTVSPost2010PropOp52
 70
     0
102
RTVSPost2010Prop53
 90
        2
102
RTVSPost2010PropOp53
 70
     1
102
RTVSPost2010Prop54
  1
strokes_ogs.tif
102
RTVSPost2010PropOp54
 70
     1
102
RTVSPost2010Prop55
280
     0
102
RTVSPost2010PropOp55
 70
     1
102
RTVSPost2010Prop56
140
1.0
102
RTVSPost2010PropOp56
 70
     1
102
RTVSPost2010Prop57
140
1.0
102
RTVSPost2010PropOp57
 70
     1
  0
XRECORD
  5
8C
102
{ACAD_REACTORS
330
8B
102
}
330
8B
100
AcDbXrecord
280
     1
102
RTVSPropertyOp0
 70
     1
102
RTVSPropertyOp1
 70
     1
102
RTVSPropertyOp2
 70
     1
102
RTVSPropertyOp3
 70
     1
102
RTVSPropertyOp4
 70
     1
102
RTVSPropertyOp5
 70
     1
102
RTVSPropertyOp6
 70
     1
102
RTVSPropertyOp7
 70
     1
102
RTVSPropertyOp8
 70
     1
102
RTVSPropertyOp9
 70
     1
102
RTVSPropertyOp10
 70
     1
102
RTVSPropertyOp11
 70
     1
102
RTVSPropertyOp12
 70
     1
102
RTVSPropertyOp13
 70
     1
102
RTVSPropertyOp14
 70
     1
102
RTVSPropertyOp15
 70
     1
102
RTVSPropertyOp16
 70
     1
102
RTVSPropertyOp17
 70
     1
102
RTVSPropertyOp18
 70
     1
102
RTVSPropertyOp19
 70
     1
102
RTVSPropertyOp20
 70
     1
102
RTVSPropertyOp21
 70
     1
102
RTVSPropertyOp22
 70
     1
102
RTVSPropertyOp23
 70
     1
102
RTVSPropertyOp24
 70
     1
102
RTVSPropertyOp25
 70
     1
102
RTVSPropertyOp26
 70
     1
102
RTVSPropertyOp27
 70
     1
102
RTVSPropertyOp28
 70
     1
102
RTVSPropertyOp29
 70
     1
102
RTVSPropertyOp30
 70
     1
102
RTVSPropertyOp31
 70
     1
102
RTVSPropertyOp32
 70
     1
102
RTVSPropertyOp33
 70
     1
102
RTVSPropertyOp34
 70
     1
102
RTVSPropertyOp35
 70
     1
102
RTVSPropertyOp36
 70
     1
102
RTVSPropertyOp37
 70
     1
102
RTVSPropertyOp38
 70
     1
102
RTVSPropertyOp39
 70
     1
102
RTVSPropertyOp40
 70
     1
102
RTVSPropertyOp41
 70
     1
102
RTVSPropertyOp42
 70
     1
102
RTVSPropertyOp43
 70
     1
102
RTVSPropertyOp44
 70
     1
102
RTVSPropertyOp45
 70
     1
102
RTVSPropertyOp46
 70
     1
102
RTVSPropertyOp47
 70
     1
102
RTVSPropertyOp48
 70
     1
102
RTVSPropertyOp49
 70
     1
102
RTVSPropertyOp50
 70
     1
102
RTVSPropertyOp51
 70
     0
102
RTVSPropertyOp52
 70
     0
102
RTVSPropertyOp53
 70
     1
102
RTVSPropertyOp54
 70
     1
102
RTVSPropertyOp55
 70
     1
102
RTVSPropertyOp56
 70
     1
102
RTVSPropertyOp57
 70
     1
102
RTVSPost2010Prop28
280
     0
102
RTVSPost2010PropOp28
 70
     1
102
RTVSPost2010Prop29
280
     1
102
RTVSPost2010PropOp29
 70
     1
102
RTVSPost2010Prop30
280
     1
102
RTVSPost2010PropOp30
 70
     1
102
RTVSPost2010Prop31
280
     0
102
RTVSPost2010PropOp31
 70
     1
102
RTVSPost2010Prop32
280
     0
102
RTVSPost2010PropOp32
 70
     1
102
RTVSPost2010Prop33
280
     0
102
RTVSPost2010PropOp33
 70
     1
102
RTVSPost2010Prop34
280
     0
102
RTVSPost2010PropOp34
 70
     1
102
RTVSPost2010Prop35
280
     0
102
RTVSPost2010PropOp35
 70
     1
102
RTVSPost2010Prop36
280
     0
102
RTVSPost2010PropOp36
 70
     1
102
RTVSPost2010Prop37
 90
       50
102
RTVSPost2010PropOp37
 70
     1
102
RTVSPost2010Prop38
140
0.0
102
RTVSPost2010PropOp38
 70
     1
102
RTVSPost2010Prop39
140
1.0
102
RTVSPost2010PropOp39
 70
     1
102
RTVSPost2010Prop40
 90
        0
102
RTVSPost2010PropOp40
 70
     1
102
RTVSPost2010Prop41ColorIndex
 90
       18
102
RTVSPost2010Prop41ColorRGB
 90
        0
102
RTVSPost2010PropOp41
 70
     1
102
RTVSPost2010Prop42
 90
       50
102
RTVSPost2010PropOp42
 70
     1
102
RTVSPost2010Prop43
 90
        3
102
RTVSPost2010PropOp43
 70
     1
102
RTVSPost2010Prop44ColorIndex
 90
        5
102
RTVSPost2010Prop44ColorRGB
 90
      255
102
RTVSPost2010PropOp44
 70
     1
102
RTVSPost2010Prop45
280
     0
102
RTVSPost2010PropOp45
 70
     1
102
RTVSPost2010Prop46
 90
       50
102
RTVSPost2010PropOp46
 70
     1
102
RTVSPost2010Prop47
 90
       50
102
RTVSPost2010PropOp47
 70
     1
102
RTVSPost2010Prop48
 90
       50
102
RTVSPost2010PropOp48
 70
     1
102
RTVSPost2010Prop49
280
     0
102
RTVSPost2010PropOp49
 70
     1
102
RTVSPost2010Prop50
 90
       50
102
RTVSPost2010PropOp50
 70
     1
102
RTVSPost2010Prop51ColorIndex
 90
      256
102
RTVSPost2010Prop51ColorRGB
 90
-16777216
102
RTVSPost2010PropOp51
 70
     0
102
RTVSPost2010Prop52
140
1.0
102
RTVSPost2010PropOp52
 70
     0
102
RTVSPost2010Prop53
 90
        2
102
RTVSPost2010PropOp53
 70
     1
102
RTVSPost2010Prop54
  1
strokes_ogs.tif
102
RTVSPost2010PropOp54
 70
     1
102
RTVSPost2010Prop55
280
     0
102
RTVSPost2010PropOp55
 70
     1
102
RTVSPost2010Prop56
140
1.0
102
RTVSPost2010PropOp56
 70
     1
102
RTVSPost2010Prop57
140
1.0
102
RTVSPost2010PropOp57
 70
     1
  0
XRECORD
  5
92
102
{ACAD_REACTORS
330
91
102
}
330
91
100
AcDbXrecord
280
     1
102
RTVSPropertyOp0
 70
     1
102
RTVSPropertyOp1
 70
     1
102
RTVSPropertyOp2
 70
     1
102
RTVSPropertyOp3
 70
     1
102
RTVSPropertyOp4
 70
     1
102
RTVSPropertyOp5
 70
     1
102
RTVSPropertyOp6
 70
     1
102
RTVSPropertyOp7
 70
     1
102
RTVSPropertyOp8
 70
     1
102
RTVSPropertyOp9
 70
     1
102
RTVSPropertyOp10
 70
     1
102
RTVSPropertyOp11
 70
     1
102
RTVSPropertyOp12
 70
     1
102
RTVSPropertyOp13
 70
     1
102
RTVSPropertyOp14
 70
     1
102
RTVSPropertyOp15
 70
     1
102
RTVSPropertyOp16
 70
     1
102
RTVSPropertyOp17
 70
     1
102
RTVSPropertyOp18
 70
     1
102
RTVSPropertyOp19
 70
     1
102
RTVSPropertyOp20
 70
     1
102
RTVSPropertyOp21
 70
     1
102
RTVSPropertyOp22
 70
     1
102
RTVSPropertyOp23
 70
     1
102
RTVSPropertyOp24
 70
     1
102
RTVSPropertyOp25
 70
     1
102
RTVSPropertyOp26
 70
     1
102
RTVSPropertyOp27
 70
     1
102
RTVSPropertyOp28
 70
     1
102
RTVSPropertyOp29
 70
     1
102
RTVSPropertyOp30
 70
     1
102
RTVSPropertyOp31
 70
     1
102
RTVSPropertyOp32
 70
     1
102
RTVSPropertyOp33
 70
     1
102
RTVSPropertyOp34
 70
     1
102
RTVSPropertyOp35
 70
     1
102
RTVSPropertyOp36
 70
     1
102
RTVSPropertyOp37
 70
     1
102
RTVSPropertyOp38
 70
     1
102
RTVSPropertyOp39
 70
     1
102
RTVSPropertyOp40
 70
     1
102
RTVSPropertyOp41
 70
     1
102
RTVSPropertyOp42
 70
     1
102
RTVSPropertyOp43
 70
     1
102
RTVSPropertyOp44
 70
     1
102
RTVSPropertyOp45
 70
     1
102
RTVSPropertyOp46
 70
     1
102
RTVSPropertyOp47
 70
     1
102
RTVSPropertyOp48
 70
     1
102
RTVSPropertyOp49
 70
     1
102
RTVSPropertyOp50
 70
     1
102
RTVSPropertyOp51
 70
     0
102
RTVSPropertyOp52
 70
     0
102
RTVSPropertyOp53
 70
     1
102
RTVSPropertyOp54
 70
     1
102
RTVSPropertyOp55
 70
     1
102
RTVSPropertyOp56
 70
     1
102
RTVSPropertyOp57
 70
     1
102
RTVSPost2010Prop28
280
     0
102
RTVSPost2010PropOp28
 70
     1
102
RTVSPost2010Prop29
280
     1
102
RTVSPost2010PropOp29
 70
     1
102
RTVSPost2010Prop30
280
     1
102
RTVSPost2010PropOp30
 70
     1
102
RTVSPost2010Prop31
280
     0
102
RTVSPost2010PropOp31
 70
     1
102
RTVSPost2010Prop32
280
     0
102
RTVSPost2010PropOp32
 70
     1
102
RTVSPost2010Prop33
280
     0
102
RTVSPost2010PropOp33
 70
     1
102
RTVSPost2010Prop34
280
     0
102
RTVSPost2010PropOp34
 70
     1
102
RTVSPost2010Prop35
280
     0
102
RTVSPost2010PropOp35
 70
     1
102
RTVSPost2010Prop36
280
     0
102
RTVSPost2010PropOp36
 70
     1
102
RTVSPost2010Prop37
 90
       50
102
RTVSPost2010PropOp37
 70
     1
102
RTVSPost2010Prop38
140
0.0
102
RTVSPost2010PropOp38
 70
     1
102
RTVSPost2010Prop39
140
1.0
102
RTVSPost2010PropOp39
 70
     1
102
RTVSPost2010Prop40
 90
        0
102
RTVSPost2010PropOp40
 70
     1
102
RTVSPost2010Prop41ColorIndex
 90
       18
102
RTVSPost2010Prop41ColorRGB
 90
        0
102
RTVSPost2010PropOp41
 70
     1
102
RTVSPost2010Prop42
 90
       50
102
RTVSPost2010PropOp42
 70
     1
102
RTVSPost2010Prop43
 90
        3
102
RTVSPost2010PropOp43
 70
     1
102
RTVSPost2010Prop44ColorIndex
 90
        5
102
RTVSPost2010Prop44ColorRGB
 90
      255
102
RTVSPost2010PropOp44
 70
     1
102
RTVSPost2010Prop45
280
     0
102
RTVSPost2010PropOp45
 70
     1
102
RTVSPost2010Prop46
 90
       50
102
RTVSPost2010PropOp46
 70
     1
102
RTVSPost2010Prop47
 90
       50
102
RTVSPost2010PropOp47
 70
     1
102
RTVSPost2010Prop48
 90
       50
102
RTVSPost2010PropOp48
 70
     1
102
RTVSPost2010Prop49
280
     0
102
RTVSPost2010PropOp49
 70
     1
102
RTVSPost2010Prop50
 90
       50
102
RTVSPost2010PropOp50
 70
     1
102
RTVSPost2010Prop51ColorIndex
 90
      256
102
RTVSPost2010Prop51ColorRGB
 90
-16777216
102
RTVSPost2010PropOp51
 70
     0
102
RTVSPost2010Prop52
140
1.0
102
RTVSPost2010PropOp52
 70
     0
102
RTVSPost2010Prop53
 90
        2
102
RTVSPost2010PropOp53
 70
     1
102
RTVSPost2010Prop54
  1
strokes_ogs.tif
102
RTVSPost2010PropOp54
 70
     1
102
RTVSPost2010Prop55
280
     0
102
RTVSPost2010PropOp55
 70
     1
102
RTVSPost2010Prop56
140
1.0
102
RTVSPost2010PropOp56
 70
     1
102
RTVSPost2010Prop57
140
1.0
102
RTVSPost2010PropOp57
 70
     1
  0
XRECORD
  5
A6
102
{ACAD_REACTORS
330
A5
102
}
330
A5
100
AcDbXrecord
280
     1
102
RTVSPropertyOp0
 70
     0
102
RTVSPropertyOp1
 70
     0
102
RTVSPropertyOp2
 70
     0
102
RTVSPropertyOp3
 70
     0
102
RTVSPropertyOp4
 70
     0
102
RTVSPropertyOp5
 70
     0
102
RTVSPropertyOp6
 70
     0
102
RTVSPropertyOp7
 70
     0
102
RTVSPropertyOp8
 70
     0
102
RTVSPropertyOp9
 70
     0
102
RTVSPropertyOp10
 70
     0
102
RTVSPropertyOp11
 70
     0
102
RTVSPropertyOp12
 70
     0
102
RTVSPropertyOp13
 70
     0
102
RTVSPropertyOp14
 70
     2
102
RTVSPropertyOp15
 70
     0
102
RTVSPropertyOp16
 70
     0
102
RTVSPropertyOp17
 70
     0
102
RTVSPropertyOp18
 70
     0
102
RTVSPropertyOp19
 70
     0
102
RTVSPropertyOp20
 70
     0
102
RTVSPropertyOp21
 70
     0
102
RTVSPropertyOp22
 70
     0
102
RTVSPropertyOp23
 70
     0
102
RTVSPropertyOp24
 70
     0
102
RTVSPropertyOp25
 70
     0
102
RTVSPropertyOp26
 70
     0
102
RTVSPropertyOp27
 70
     0
102
RTVSPropertyOp28
 70
     0
102
RTVSPropertyOp29
 70
     0
102
RTVSPropertyOp30
 70
     0
102
RTVSPropertyOp31
 70
     0
102
RTVSPropertyOp32
 70
     0
102
RTVSPropertyOp33
 70
     0
102
RTVSPropertyOp34
 70
     0
102
RTVSPropertyOp35
 70
     0
102
RTVSPropertyOp36
 70
     0
102
RTVSPropertyOp37
 70
     0
102
RTVSPropertyOp38
 70
     0
102
RTVSPropertyOp39
 70
     0
102
RTVSPropertyOp40
 70
     0
102
RTVSPropertyOp41
 70
     0
102
RTVSPropertyOp42
 70
     0
102
RTVSPropertyOp43
 70
     0
102
RTVSPropertyOp44
 70
     0
102
RTVSPropertyOp45
 70
     0
102
RTVSPropertyOp46
 70
     0
102
RTVSPropertyOp47
 70
     0
102
RTVSPropertyOp48
 70
     0
102
RTVSPropertyOp49
 70
     0
102
RTVSPropertyOp50
 70
     0
102
RTVSPropertyOp51
 70
     0
102
RTVSPropertyOp52
 70
     0
102
RTVSPropertyOp53
 70
     0
102
RTVSPropertyOp54
 70
     0
102
RTVSPropertyOp55
 70
     0
102
RTVSPropertyOp56
 70
     0
102
RTVSPropertyOp57
 70
     0
102
RTVSPost2010Prop28
280
     0
102
RTVSPost2010PropOp28
 70
     0
102
RTVSPost2010Prop29
280
     1
102
RTVSPost2010PropOp29
 70
     0
102
RTVSPost2010Prop30
280
     1
102
RTVSPost2010PropOp30
 70
     0
102
RTVSPost2010Prop31
280
     0
102
RTVSPost2010PropOp31
 70
     0
102
RTVSPost2010Prop32
280
     0
102
RTVSPost2010PropOp32
 70
     0
102
RTVSPost2010Prop33
280
     0
102
RTVSPost2010PropOp33
 70
     0
102
RTVSPost2010Prop34
280
     0
102
RTVSPost2010PropOp34
 70
     0
102
RTVSPost2010Prop35
280
     0
102
RTVSPost2010PropOp35
 70
     0
102
RTVSPost2010Prop36
280
     0
102
RTVSPost2010PropOp36
 70
     0
102
RTVSPost2010Prop37
 90
       50
102
RTVSPost2010PropOp37
 70
     0
102
RTVSPost2010Prop38
140
0.0
102
RTVSPost2010PropOp38
 70
     0
102
RTVSPost2010Prop39
140
1.0
102
RTVSPost2010PropOp39
 70
     0
102
RTVSPost2010Prop40
 90
        0
102
RTVSPost2010PropOp40
 70
     0
102
RTVSPost2010Prop41ColorIndex
 90
       18
102
RTVSPost2010Prop41ColorRGB
 90
        0
102
RTVSPost2010PropOp41
 70
     0
102
RTVSPost2010Prop42
 90
       50
102
RTVSPost2010PropOp42
 70
     0
102
RTVSPost2010Prop43
 90
        3
102
RTVSPost2010PropOp43
 70
     0
102
RTVSPost2010Prop44ColorIndex
 90
        5
102
RTVSPost2010Prop44ColorRGB
 90
      255
102
RTVSPost2010PropOp44
 70
     0
102
RTVSPost2010Prop45
280
     0
102
RTVSPost2010PropOp45
 70
     0
102
RTVSPost2010Prop46
 90
       50
102
RTVSPost2010PropOp46
 70
     0
102
RTVSPost2010Prop47
 90
       50
102
RTVSPost2010PropOp47
 70
     0
102
RTVSPost2010Prop48
 90
       50
102
RTVSPost2010PropOp48
 70
     0
102
RTVSPost2010Prop49
280
     0
102
RTVSPost2010PropOp49
 70
     0
102
RTVSPost2010Prop50
 90
       50
102
RTVSPost2010PropOp50
 70
     0
102
RTVSPost2010Prop51ColorIndex
 90
      256
102
RTVSPost2010Prop51ColorRGB
 90
-16777216
102
RTVSPost2010PropOp51
 70
     0
102
RTVSPost2010Prop52
140
1.0
102
RTVSPost2010PropOp52
 70
     0
102
RTVSPost2010Prop53
 90
        2
102
RTVSPost2010PropOp53
 70
     0
102
RTVSPost2010Prop54
  1
strokes_ogs.tif
102
RTVSPost2010PropOp54
 70
     0
102
RTVSPost2010Prop55
280
     0
102
RTVSPost2010PropOp55
 70
     0
102
RTVSPost2010Prop56
140
1.0
102
RTVSPost2010PropOp56
 70
     0
102
RTVSPost2010Prop57
140
1.0
102
RTVSPost2010PropOp57
 70
     0
  0
XRECORD
  5
A0
102
{ACAD_REACTORS
330
9F
102
}
330
9F
100
AcDbXrecord
280
     1
102
RTVSPropertyOp0
 70
     1
102
RTVSPropertyOp1
 70
     1
102
RTVSPropertyOp2
 70
     1
102
RTVSPropertyOp3
 70
     1
102
RTVSPropertyOp4
 70
     1
102
RTVSPropertyOp5
 70
     1
102
RTVSPropertyOp6
 70
     1
102
RTVSPropertyOp7
 70
     1
102
RTVSPropertyOp8
 70
     1
102
RTVSPropertyOp9
 70
     1
102
RTVSPropertyOp10
 70
     1
102
RTVSPropertyOp11
 70
     1
102
RTVSPropertyOp12
 70
     1
102
RTVSPropertyOp13
 70
     1
102
RTVSPropertyOp14
 70
     1
102
RTVSPropertyOp15
 70
     1
102
RTVSPropertyOp16
 70
     1
102
RTVSPropertyOp17
 70
     1
102
RTVSPropertyOp18
 70
     1
102
RTVSPropertyOp19
 70
     1
102
RTVSPropertyOp20
 70
     1
102
RTVSPropertyOp21
 70
     1
102
RTVSPropertyOp22
 70
     1
102
RTVSPropertyOp23
 70
     1
102
RTVSPropertyOp24
 70
     1
102
RTVSPropertyOp25
 70
     1
102
RTVSPropertyOp26
 70
     1
102
RTVSPropertyOp27
 70
     1
102
RTVSPropertyOp28
 70
     1
102
RTVSPropertyOp29
 70
     1
102
RTVSPropertyOp30
 70
     1
102
RTVSPropertyOp31
 70
     1
102
RTVSPropertyOp32
 70
     1
102
RTVSPropertyOp33
 70
     1
102
RTVSPropertyOp34
 70
     1
102
RTVSPropertyOp35
 70
     1
102
RTVSPropertyOp36
 70
     1
102
RTVSPropertyOp37
 70
     1
102
RTVSPropertyOp38
 70
     1
102
RTVSPropertyOp39
 70
     1
102
RTVSPropertyOp40
 70
     1
102
RTVSPropertyOp41
 70
     1
102
RTVSPropertyOp42
 70
     1
102
RTVSPropertyOp43
 70
     1
102
RTVSPropertyOp44
 70
     1
102
RTVSPropertyOp45
 70
     1
102
RTVSPropertyOp46
 70
     1
102
RTVSPropertyOp47
 70
     1
102
RTVSPropertyOp48
 70
     1
102
RTVSPropertyOp49
 70
     1
102
RTVSPropertyOp50
 70
     1
102
RTVSPropertyOp51
 70
     0
102
RTVSPropertyOp52
 70
     0
102
RTVSPropertyOp53
 70
     1
102
RTVSPropertyOp54
 70
     1
102
RTVSPropertyOp55
 70
     1
102
RTVSPropertyOp56
 70
     1
102
RTVSPropertyOp57
 70
     1
102
RTVSPost2010Prop28
280
     0
102
RTVSPost2010PropOp28
 70
     1
102
RTVSPost2010Prop29
280
     1
102
RTVSPost2010PropOp29
 70
     1
102
RTVSPost2010Prop30
280
     1
102
RTVSPost2010PropOp30
 70
     1
102
RTVSPost2010Prop31
280
     0
102
RTVSPost2010PropOp31
 70
     1
102
RTVSPost2010Prop32
280
     0
102
RTVSPost2010PropOp32
 70
     1
102
RTVSPost2010Prop33
280
     0
102
RTVSPost2010PropOp33
 70
     1
102
RTVSPost2010Prop34
280
     0
102
RTVSPost2010PropOp34
 70
     1
102
RTVSPost2010Prop35
280
     0
102
RTVSPost2010PropOp35
 70
     1
102
RTVSPost2010Prop36
280
     0
102
RTVSPost2010PropOp36
 70
     1
102
RTVSPost2010Prop37
 90
       50
102
RTVSPost2010PropOp37
 70
     1
102
RTVSPost2010Prop38
140
0.0
102
RTVSPost2010PropOp38
 70
     1
102
RTVSPost2010Prop39
140
1.0
102
RTVSPost2010PropOp39
 70
     1
102
RTVSPost2010Prop40
 90
        0
102
RTVSPost2010PropOp40
 70
     1
102
RTVSPost2010Prop41ColorIndex
 90
       18
102
RTVSPost2010Prop41ColorRGB
 90
        0
102
RTVSPost2010PropOp41
 70
     1
102
RTVSPost2010Prop42
 90
       50
102
RTVSPost2010PropOp42
 70
     1
102
RTVSPost2010Prop43
 90
        3
102
RTVSPost2010PropOp43
 70
     1
102
RTVSPost2010Prop44ColorIndex
 90
        5
102
RTVSPost2010Prop44ColorRGB
 90
      255
102
RTVSPost2010PropOp44
 70
     1
102
RTVSPost2010Prop45
280
     0
102
RTVSPost2010PropOp45
 70
     1
102
RTVSPost2010Prop46
 90
       50
102
RTVSPost2010PropOp46
 70
     1
102
RTVSPost2010Prop47
 90
       50
102
RTVSPost2010PropOp47
 70
     1
102
RTVSPost2010Prop48
 90
       50
102
RTVSPost2010PropOp48
 70
     1
102
RTVSPost2010Prop49
280
     0
102
RTVSPost2010PropOp49
 70
     1
102
RTVSPost2010Prop50
 90
       50
102
RTVSPost2010PropOp50
 70
     1
102
RTVSPost2010Prop51ColorIndex
 90
      256
102
RTVSPost2010Prop51ColorRGB
 90
-16777216
102
RTVSPost2010PropOp51
 70
     0
102
RTVSPost2010Prop52
140
1.0
102
RTVSPost2010PropOp52
 70
     0
102
RTVSPost2010Prop53
 90
        2
102
RTVSPost2010PropOp53
 70
     1
102
RTVSPost2010Prop54
  1
strokes_ogs.tif
102
RTVSPost2010PropOp54
 70
     1
102
RTVSPost2010Prop55
280
     0
102
RTVSPost2010PropOp55
 70
     1
102
RTVSPost2010Prop56
140
1.0
102
RTVSPost2010PropOp56
 70
     1
102
RTVSPost2010Prop57
140
1.0
102
RTVSPost2010PropOp57
 70
     1
  0
XRECORD
  5
A8
102
{ACAD_REACTORS
330
A7
102
}
330
A7
100
AcDbXrecord
280
     1
102
RTVSPropertyOp0
 70
     0
102
RTVSPropertyOp1
 70
     0
102
RTVSPropertyOp2
 70
     0
102
RTVSPropertyOp3
 70
     0
102
RTVSPropertyOp4
 70
     0
102
RTVSPropertyOp5
 70
     0
102
RTVSPropertyOp6
 70
     0
102
RTVSPropertyOp7
 70
     0
102
RTVSPropertyOp8
 70
     0
102
RTVSPropertyOp9
 70
     0
102
RTVSPropertyOp10
 70
     0
102
RTVSPropertyOp11
 70
     0
102
RTVSPropertyOp12
 70
     0
102
RTVSPropertyOp13
 70
     0
102
RTVSPropertyOp14
 70
     2
102
RTVSPropertyOp15
 70
     0
102
RTVSPropertyOp16
 70
     0
102
RTVSPropertyOp17
 70
     0
102
RTVSPropertyOp18
 70
     0
102
RTVSPropertyOp19
 70
     0
102
RTVSPropertyOp20
 70
     0
102
RTVSPropertyOp21
 70
     0
102
RTVSPropertyOp22
 70
     0
102
RTVSPropertyOp23
 70
     0
102
RTVSPropertyOp24
 70
     0
102
RTVSPropertyOp25
 70
     0
102
RTVSPropertyOp26
 70
     0
102
RTVSPropertyOp27
 70
     0
102
RTVSPropertyOp28
 70
     0
102
RTVSPropertyOp29
 70
     0
102
RTVSPropertyOp30
 70
     0
102
RTVSPropertyOp31
 70
     0
102
RTVSPropertyOp32
 70
     0
102
RTVSPropertyOp33
 70
     0
102
RTVSPropertyOp34
 70
     0
102
RTVSPropertyOp35
 70
     0
102
RTVSPropertyOp36
 70
     0
102
RTVSPropertyOp37
 70
     0
102
RTVSPropertyOp38
 70
     0
102
RTVSPropertyOp39
 70
     0
102
RTVSPropertyOp40
 70
     0
102
RTVSPropertyOp41
 70
     0
102
RTVSPropertyOp42
 70
     0
102
RTVSPropertyOp43
 70
     0
102
RTVSPropertyOp44
 70
     0
102
RTVSPropertyOp45
 70
     0
102
RTVSPropertyOp46
 70
     0
102
RTVSPropertyOp47
 70
     0
102
RTVSPropertyOp48
 70
     0
102
RTVSPropertyOp49
 70
     0
102
RTVSPropertyOp50
 70
     0
102
RTVSPropertyOp51
 70
     0
102
RTVSPropertyOp52
 70
     0
102
RTVSPropertyOp53
 70
     0
102
RTVSPropertyOp54
 70
     0
102
RTVSPropertyOp55
 70
     0
102
RTVSPropertyOp56
 70
     0
102
RTVSPropertyOp57
 70
     0
102
RTVSPost2010Prop28
280
     0
102
RTVSPost2010PropOp28
 70
     0
102
RTVSPost2010Prop29
280
     1
102
RTVSPost2010PropOp29
 70
     0
102
RTVSPost2010Prop30
280
     1
102
RTVSPost2010PropOp30
 70
     0
102
RTVSPost2010Prop31
280
     0
102
RTVSPost2010PropOp31
 70
     0
102
RTVSPost2010Prop32
280
     0
102
RTVSPost2010PropOp32
 70
     0
102
RTVSPost2010Prop33
280
     0
102
RTVSPost2010PropOp33
 70
     0
102
RTVSPost2010Prop34
280
     0
102
RTVSPost2010PropOp34
 70
     0
102
RTVSPost2010Prop35
280
     0
102
RTVSPost2010PropOp35
 70
     0
102
RTVSPost2010Prop36
280
     0
102
RTVSPost2010PropOp36
 70
     0
102
RTVSPost2010Prop37
 90
       50
102
RTVSPost2010PropOp37
 70
     0
102
RTVSPost2010Prop38
140
0.0
102
RTVSPost2010PropOp38
 70
     0
102
RTVSPost2010Prop39
140
1.0
102
RTVSPost2010PropOp39
 70
     0
102
RTVSPost2010Prop40
 90
        0
102
RTVSPost2010PropOp40
 70
     0
102
RTVSPost2010Prop41ColorIndex
 90
       18
102
RTVSPost2010Prop41ColorRGB
 90
        0
102
RTVSPost2010PropOp41
 70
     0
102
RTVSPost2010Prop42
 90
       50
102
RTVSPost2010PropOp42
 70
     0
102
RTVSPost2010Prop43
 90
        3
102
RTVSPost2010PropOp43
 70
     0
102
RTVSPost2010Prop44ColorIndex
 90
        5
102
RTVSPost2010Prop44ColorRGB
 90
      255
102
RTVSPost2010PropOp44
 70
     0
102
RTVSPost2010Prop45
280
     0
102
RTVSPost2010PropOp45
 70
     0
102
RTVSPost2010Prop46
 90
       50
102
RTVSPost2010PropOp46
 70
     0
102
RTVSPost2010Prop47
 90
       50
102
RTVSPost2010PropOp47
 70
     0
102
RTVSPost2010Prop48
 90
       50
102
RTVSPost2010PropOp48
 70
     0
102
RTVSPost2010Prop49
280
     0
102
RTVSPost2010PropOp49
 70
     0
102
RTVSPost2010Prop50
 90
       50
102
RTVSPost2010PropOp50
 70
     0
102
RTVSPost2010Prop51ColorIndex
 90
      256
102
RTVSPost2010Prop51ColorRGB
 90
-16777216
102
RTVSPost2010PropOp51
 70
     0
102
RTVSPost2010Prop52
140
1.0
102
RTVSPost2010PropOp52
 70
     0
102
RTVSPost2010Prop53
 90
        2
102
RTVSPost2010PropOp53
 70
     0
102
RTVSPost2010Prop54
  1
strokes_ogs.tif
102
RTVSPost2010PropOp54
 70
     0
102
RTVSPost2010Prop55
280
     0
102
RTVSPost2010PropOp55
 70
     0
102
RTVSPost2010Prop56
140
1.0
102
RTVSPost2010PropOp56
 70
     0
102
RTVSPost2010Prop57
140
1.0
102
RTVSPost2010PropOp57
 70
     0
  0
XRECORD
  5
96
102
{ACAD_REACTORS
330
95
102
}
330
95
100
AcDbXrecord
280
     1
102
RTVSPropertyOp0
 70
     1
102
RTVSPropertyOp1
 70
     1
102
RTVSPropertyOp2
 70
     1
102
RTVSPropertyOp3
 70
     1
102
RTVSPropertyOp4
 70
     1
102
RTVSPropertyOp5
 70
     1
102
RTVSPropertyOp6
 70
     1
102
RTVSPropertyOp7
 70
     1
102
RTVSPropertyOp8
 70
     1
102
RTVSPropertyOp9
 70
     1
102
RTVSPropertyOp10
 70
     1
102
RTVSPropertyOp11
 70
     1
102
RTVSPropertyOp12
 70
     1
102
RTVSPropertyOp13
 70
     1
102
RTVSPropertyOp14
 70
     1
102
RTVSPropertyOp15
 70
     1
102
RTVSPropertyOp16
 70
     1
102
RTVSPropertyOp17
 70
     1
102
RTVSPropertyOp18
 70
     1
102
RTVSPropertyOp19
 70
     1
102
RTVSPropertyOp20
 70
     1
102
RTVSPropertyOp21
 70
     1
102
RTVSPropertyOp22
 70
     1
102
RTVSPropertyOp23
 70
     1
102
RTVSPropertyOp24
 70
     1
102
RTVSPropertyOp25
 70
     1
102
RTVSPropertyOp26
 70
     1
102
RTVSPropertyOp27
 70
     1
102
RTVSPropertyOp28
 70
     1
102
RTVSPropertyOp29
 70
     1
102
RTVSPropertyOp30
 70
     1
102
RTVSPropertyOp31
 70
     1
102
RTVSPropertyOp32
 70
     1
102
RTVSPropertyOp33
 70
     1
102
RTVSPropertyOp34
 70
     1
102
RTVSPropertyOp35
 70
     1
102
RTVSPropertyOp36
 70
     1
102
RTVSPropertyOp37
 70
     1
102
RTVSPropertyOp38
 70
     1
102
RTVSPropertyOp39
 70
     1
102
RTVSPropertyOp40
 70
     1
102
RTVSPropertyOp41
 70
     1
102
RTVSPropertyOp42
 70
     1
102
RTVSPropertyOp43
 70
     1
102
RTVSPropertyOp44
 70
     1
102
RTVSPropertyOp45
 70
     1
102
RTVSPropertyOp46
 70
     1
102
RTVSPropertyOp47
 70
     1
102
RTVSPropertyOp48
 70
     1
102
RTVSPropertyOp49
 70
     1
102
RTVSPropertyOp50
 70
     1
102
RTVSPropertyOp51
 70
     0
102
RTVSPropertyOp52
 70
     0
102
RTVSPropertyOp53
 70
     1
102
RTVSPropertyOp54
 70
     1
102
RTVSPropertyOp55
 70
     1
102
RTVSPropertyOp56
 70
     1
102
RTVSPropertyOp57
 70
     1
102
RTVSPost2010Prop28
280
     0
102
RTVSPost2010PropOp28
 70
     1
102
RTVSPost2010Prop29
280
     1
102
RTVSPost2010PropOp29
 70
     1
102
RTVSPost2010Prop30
280
     1
102
RTVSPost2010PropOp30
 70
     1
102
RTVSPost2010Prop31
280
     0
102
RTVSPost2010PropOp31
 70
     1
102
RTVSPost2010Prop32
280
     0
102
RTVSPost2010PropOp32
 70
     1
102
RTVSPost2010Prop33
280
     0
102
RTVSPost2010PropOp33
 70
     1
102
RTVSPost2010Prop34
280
     0
102
RTVSPost2010PropOp34
 70
     1
102
RTVSPost2010Prop35
280
     0
102
RTVSPost2010PropOp35
 70
     1
102
RTVSPost2010Prop36
280
     0
102
RTVSPost2010PropOp36
 70
     1
102
RTVSPost2010Prop37
 90
       50
102
RTVSPost2010PropOp37
 70
     1
102
RTVSPost2010Prop38
140
0.0
102
RTVSPost2010PropOp38
 70
     1
102
RTVSPost2010Prop39
140
1.0
102
RTVSPost2010PropOp39
 70
     1
102
RTVSPost2010Prop40
 90
        0
102
RTVSPost2010PropOp40
 70
     1
102
RTVSPost2010Prop41ColorIndex
 90
       18
102
RTVSPost2010Prop41ColorRGB
 90
        0
102
RTVSPost2010PropOp41
 70
     1
102
RTVSPost2010Prop42
 90
       50
102
RTVSPost2010PropOp42
 70
     1
102
RTVSPost2010Prop43
 90
        3
102
RTVSPost2010PropOp43
 70
     1
102
RTVSPost2010Prop44ColorIndex
 90
        5
102
RTVSPost2010Prop44ColorRGB
 90
      255
102
RTVSPost2010PropOp44
 70
     1
102
RTVSPost2010Prop45
280
     0
102
RTVSPost2010PropOp45
 70
     1
102
RTVSPost2010Prop46
 90
       50
102
RTVSPost2010PropOp46
 70
     1
102
RTVSPost2010Prop47
 90
       50
102
RTVSPost2010PropOp47
 70
     1
102
RTVSPost2010Prop48
 90
       50
102
RTVSPost2010PropOp48
 70
     1
102
RTVSPost2010Prop49
280
     0
102
RTVSPost2010PropOp49
 70
     1
102
RTVSPost2010Prop50
 90
       50
102
RTVSPost2010PropOp50
 70
     1
102
RTVSPost2010Prop51ColorIndex
 90
      256
102
RTVSPost2010Prop51ColorRGB
 90
-16777216
102
RTVSPost2010PropOp51
 70
     0
102
RTVSPost2010Prop52
140
1.0
102
RTVSPost2010PropOp52
 70
     0
102
RTVSPost2010Prop53
 90
        2
102
RTVSPost2010PropOp53
 70
     1
102
RTVSPost2010Prop54
  1
strokes_ogs.tif
102
RTVSPost2010PropOp54
 70
     1
102
RTVSPost2010Prop55
280
     0
102
RTVSPost2010PropOp55
 70
     1
102
RTVSPost2010Prop56
140
1.0
102
RTVSPost2010PropOp56
 70
     1
102
RTVSPost2010Prop57
140
1.0
102
RTVSPost2010PropOp57
 70
     1
  0
XRECORD
  5
B4
102
{ACAD_REACTORS
330
B3
102
}
330
B3
100
AcDbXrecord
280
     1
102
RTVSPropertyOp0
 70
     1
102
RTVSPropertyOp1
 70
     1
102
RTVSPropertyOp2
 70
     1
102
RTVSPropertyOp3
 70
     1
102
RTVSPropertyOp4
 70
     1
102
RTVSPropertyOp5
 70
     1
102
RTVSPropertyOp6
 70
     1
102
RTVSPropertyOp7
 70
     1
102
RTVSPropertyOp8
 70
     1
102
RTVSPropertyOp9
 70
     1
102
RTVSPropertyOp10
 70
     1
102
RTVSPropertyOp11
 70
     1
102
RTVSPropertyOp12
 70
     1
102
RTVSPropertyOp13
 70
     1
102
RTVSPropertyOp14
 70
     1
102
RTVSPropertyOp15
 70
     1
102
RTVSPropertyOp16
 70
     1
102
RTVSPropertyOp17
 70
     1
102
RTVSPropertyOp18
 70
     1
102
RTVSPropertyOp19
 70
     1
102
RTVSPropertyOp20
 70
     1
102
RTVSPropertyOp21
 70
     1
102
RTVSPropertyOp22
 70
     1
102
RTVSPropertyOp23
 70
     1
102
RTVSPropertyOp24
 70
     1
102
RTVSPropertyOp25
 70
     1
102
RTVSPropertyOp26
 70
     1
102
RTVSPropertyOp27
 70
     1
102
RTVSPropertyOp28
 70
     1
102
RTVSPropertyOp29
 70
     1
102
RTVSPropertyOp30
 70
     1
102
RTVSPropertyOp31
 70
     1
102
RTVSPropertyOp32
 70
     1
102
RTVSPropertyOp33
 70
     1
102
RTVSPropertyOp34
 70
     1
102
RTVSPropertyOp35
 70
     1
102
RTVSPropertyOp36
 70
     1
102
RTVSPropertyOp37
 70
     1
102
RTVSPropertyOp38
 70
     1
102
RTVSPropertyOp39
 70
     1
102
RTVSPropertyOp40
 70
     1
102
RTVSPropertyOp41
 70
     1
102
RTVSPropertyOp42
 70
     1
102
RTVSPropertyOp43
 70
     1
102
RTVSPropertyOp44
 70
     1
102
RTVSPropertyOp45
 70
     1
102
RTVSPropertyOp46
 70
     1
102
RTVSPropertyOp47
 70
     1
102
RTVSPropertyOp48
 70
     1
102
RTVSPropertyOp49
 70
     1
102
RTVSPropertyOp50
 70
     1
102
RTVSPropertyOp51
 70
     0
102
RTVSPropertyOp52
 70
     0
102
RTVSPropertyOp53
 70
     1
102
RTVSPropertyOp54
 70
     1
102
RTVSPropertyOp55
 70
     1
102
RTVSPropertyOp56
 70
     1
102
RTVSPropertyOp57
 70
     1
102
RTVSPost2010Prop28
280
     0
102
RTVSPost2010PropOp28
 70
     1
102
RTVSPost2010Prop29
280
     1
102
RTVSPost2010PropOp29
 70
     1
102
RTVSPost2010Prop30
280
     1
102
RTVSPost2010PropOp30
 70
     1
102
RTVSPost2010Prop31
280
     0
102
RTVSPost2010PropOp31
 70
     1
102
RTVSPost2010Prop32
280
     0
102
RTVSPost2010PropOp32
 70
     1
102
RTVSPost2010Prop33
280
     0
102
RTVSPost2010PropOp33
 70
     1
102
RTVSPost2010Prop34
280
     0
102
RTVSPost2010PropOp34
 70
     1
102
RTVSPost2010Prop35
280
     0
102
RTVSPost2010PropOp35
 70
     1
102
RTVSPost2010Prop36
280
     0
102
RTVSPost2010PropOp36
 70
     1
102
RTVSPost2010Prop37
 90
       50
102
RTVSPost2010PropOp37
 70
     1
102
RTVSPost2010Prop38
140
0.0
102
RTVSPost2010PropOp38
 70
     1
102
RTVSPost2010Prop39
140
1.0
102
RTVSPost2010PropOp39
 70
     1
102
RTVSPost2010Prop40
 90
        0
102
RTVSPost2010PropOp40
 70
     1
102
RTVSPost2010Prop41ColorIndex
 90
       18
102
RTVSPost2010Prop41ColorRGB
 90
        0
102
RTVSPost2010PropOp41
 70
     1
102
RTVSPost2010Prop42
 90
       50
102
RTVSPost2010PropOp42
 70
     1
102
RTVSPost2010Prop43
 90
        3
102
RTVSPost2010PropOp43
 70
     1
102
RTVSPost2010Prop44ColorIndex
 90
        5
102
RTVSPost2010Prop44ColorRGB
 90
      255
102
RTVSPost2010PropOp44
 70
     1
102
RTVSPost2010Prop45
280
     0
102
RTVSPost2010PropOp45
 70
     1
102
RTVSPost2010Prop46
 90
       50
102
RTVSPost2010PropOp46
 70
     1
102
RTVSPost2010Prop47
 90
       50
102
RTVSPost2010PropOp47
 70
     1
102
RTVSPost2010Prop48
 90
       50
102
RTVSPost2010PropOp48
 70
     1
102
RTVSPost2010Prop49
280
     0
102
RTVSPost2010PropOp49
 70
     1
102
RTVSPost2010Prop50
 90
       50
102
RTVSPost2010PropOp50
 70
     1
102
RTVSPost2010Prop51ColorIndex
 90
      256
102
RTVSPost2010Prop51ColorRGB
 90
-16777216
102
RTVSPost2010PropOp51
 70
     0
102
RTVSPost2010Prop52
140
1.0
102
RTVSPost2010PropOp52
 70
     0
102
RTVSPost2010Prop53
 90
        2
102
RTVSPost2010PropOp53
 70
     1
102
RTVSPost2010Prop54
  1
strokes_ogs.tif
102
RTVSPost2010PropOp54
 70
     1
102
RTVSPost2010Prop55
280
     0
102
RTVSPost2010PropOp55
 70
     1
102
RTVSPost2010Prop56
140
1.0
102
RTVSPost2010PropOp56
 70
     1
102
RTVSPost2010Prop57
140
1.0
102
RTVSPost2010PropOp57
 70
     1
  0
XRECORD
  5
B2
102
{ACAD_REACTORS
330
B1
102
}
330
B1
100
AcDbXrecord
280
     1
102
RTVSPropertyOp0
 70
     1
102
RTVSPropertyOp1
 70
     1
102
RTVSPropertyOp2
 70
     1
102
RTVSPropertyOp3
 70
     1
102
RTVSPropertyOp4
 70
     1
102
RTVSPropertyOp5
 70
     1
102
RTVSPropertyOp6
 70
     1
102
RTVSPropertyOp7
 70
     1
102
RTVSPropertyOp8
 70
     1
102
RTVSPropertyOp9
 70
     1
102
RTVSPropertyOp10
 70
     1
102
RTVSPropertyOp11
 70
     1
102
RTVSPropertyOp12
 70
     1
102
RTVSPropertyOp13
 70
     1
102
RTVSPropertyOp14
 70
     1
102
RTVSPropertyOp15
 70
     1
102
RTVSPropertyOp16
 70
     1
102
RTVSPropertyOp17
 70
     1
102
RTVSPropertyOp18
 70
     1
102
RTVSPropertyOp19
 70
     1
102
RTVSPropertyOp20
 70
     1
102
RTVSPropertyOp21
 70
     1
102
RTVSPropertyOp22
 70
     1
102
RTVSPropertyOp23
 70
     1
102
RTVSPropertyOp24
 70
     1
102
RTVSPropertyOp25
 70
     1
102
RTVSPropertyOp26
 70
     1
102
RTVSPropertyOp27
 70
     1
102
RTVSPropertyOp28
 70
     1
102
RTVSPropertyOp29
 70
     1
102
RTVSPropertyOp30
 70
     1
102
RTVSPropertyOp31
 70
     1
102
RTVSPropertyOp32
 70
     1
102
RTVSPropertyOp33
 70
     1
102
RTVSPropertyOp34
 70
     1
102
RTVSPropertyOp35
 70
     1
102
RTVSPropertyOp36
 70
     1
102
RTVSPropertyOp37
 70
     1
102
RTVSPropertyOp38
 70
     1
102
RTVSPropertyOp39
 70
     1
102
RTVSPropertyOp40
 70
     1
102
RTVSPropertyOp41
 70
     1
102
RTVSPropertyOp42
 70
     1
102
RTVSPropertyOp43
 70
     1
102
RTVSPropertyOp44
 70
     1
102
RTVSPropertyOp45
 70
     1
102
RTVSPropertyOp46
 70
     1
102
RTVSPropertyOp47
 70
     1
102
RTVSPropertyOp48
 70
     1
102
RTVSPropertyOp49
 70
     1
102
RTVSPropertyOp50
 70
     1
102
RTVSPropertyOp51
 70
     0
102
RTVSPropertyOp52
 70
     0
102
RTVSPropertyOp53
 70
     1
102
RTVSPropertyOp54
 70
     1
102
RTVSPropertyOp55
 70
     1
102
RTVSPropertyOp56
 70
     1
102
RTVSPropertyOp57
 70
     1
102
RTVSPost2010Prop28
280
     0
102
RTVSPost2010PropOp28
 70
     1
102
RTVSPost2010Prop29
280
     1
102
RTVSPost2010PropOp29
 70
     1
102
RTVSPost2010Prop30
280
     1
102
RTVSPost2010PropOp30
 70
     1
102
RTVSPost2010Prop31
280
     0
102
RTVSPost2010PropOp31
 70
     1
102
RTVSPost2010Prop32
280
     0
102
RTVSPost2010PropOp32
 70
     1
102
RTVSPost2010Prop33
280
     0
102
RTVSPost2010PropOp33
 70
     1
102
RTVSPost2010Prop34
280
     0
102
RTVSPost2010PropOp34
 70
     1
102
RTVSPost2010Prop35
280
     0
102
RTVSPost2010PropOp35
 70
     1
102
RTVSPost2010Prop36
280
     0
102
RTVSPost2010PropOp36
 70
     1
102
RTVSPost2010Prop37
 90
       50
102
RTVSPost2010PropOp37
 70
     1
102
RTVSPost2010Prop38
140
0.0
102
RTVSPost2010PropOp38
 70
     1
102
RTVSPost2010Prop39
140
1.0
102
RTVSPost2010PropOp39
 70
     1
102
RTVSPost2010Prop40
 90
        0
102
RTVSPost2010PropOp40
 70
     1
102
RTVSPost2010Prop41ColorIndex
 90
       18
102
RTVSPost2010Prop41ColorRGB
 90
        0
102
RTVSPost2010PropOp41
 70
     1
102
RTVSPost2010Prop42
 90
       50
102
RTVSPost2010PropOp42
 70
     1
102
RTVSPost2010Prop43
 90
        3
102
RTVSPost2010PropOp43
 70
     1
102
RTVSPost2010Prop44ColorIndex
 90
        5
102
RTVSPost2010Prop44ColorRGB
 90
      255
102
RTVSPost2010PropOp44
 70
     1
102
RTVSPost2010Prop45
280
     0
102
RTVSPost2010PropOp45
 70
     1
102
RTVSPost2010Prop46
 90
       50
102
RTVSPost2010PropOp46
 70
     1
102
RTVSPost2010Prop47
 90
       50
102
RTVSPost2010PropOp47
 70
     1
102
RTVSPost2010Prop48
 90
       50
102
RTVSPost2010PropOp48
 70
     1
102
RTVSPost2010Prop49
280
     0
102
RTVSPost2010PropOp49
 70
     1
102
RTVSPost2010Prop50
 90
       50
102
RTVSPost2010PropOp50
 70
     1
102
RTVSPost2010Prop51ColorIndex
 90
      256
102
RTVSPost2010Prop51ColorRGB
 90
-16777216
102
RTVSPost2010PropOp51
 70
     0
102
RTVSPost2010Prop52
140
1.0
102
RTVSPost2010PropOp52
 70
     0
102
RTVSPost2010Prop53
 90
        2
102
RTVSPost2010PropOp53
 70
     1
102
RTVSPost2010Prop54
  1
strokes_ogs.tif
102
RTVSPost2010PropOp54
 70
     1
102
RTVSPost2010Prop55
280
     0
102
RTVSPost2010PropOp55
 70
     1
102
RTVSPost2010Prop56
140
1.0
102
RTVSPost2010PropOp56
 70
     1
102
RTVSPost2010Prop57
140
1.0
102
RTVSPost2010PropOp57
 70
     1
  0
XRECORD
  5
AC
102
{ACAD_REACTORS
330
AB
102
}
330
AB
100
AcDbXrecord
280
     1
102
RTVSPropertyOp0
 70
     1
102
RTVSPropertyOp1
 70
     1
102
RTVSPropertyOp2
 70
     1
102
RTVSPropertyOp3
 70
     1
102
RTVSPropertyOp4
 70
     1
102
RTVSPropertyOp5
 70
     1
102
RTVSPropertyOp6
 70
     1
102
RTVSPropertyOp7
 70
     1
102
RTVSPropertyOp8
 70
     1
102
RTVSPropertyOp9
 70
     1
102
RTVSPropertyOp10
 70
     1
102
RTVSPropertyOp11
 70
     1
102
RTVSPropertyOp12
 70
     1
102
RTVSPropertyOp13
 70
     1
102
RTVSPropertyOp14
 70
     1
102
RTVSPropertyOp15
 70
     1
102
RTVSPropertyOp16
 70
     1
102
RTVSPropertyOp17
 70
     1
102
RTVSPropertyOp18
 70
     1
102
RTVSPropertyOp19
 70
     1
102
RTVSPropertyOp20
 70
     1
102
RTVSPropertyOp21
 70
     1
102
RTVSPropertyOp22
 70
     1
102
RTVSPropertyOp23
 70
     1
102
RTVSPropertyOp24
 70
     1
102
RTVSPropertyOp25
 70
     1
102
RTVSPropertyOp26
 70
     1
102
RTVSPropertyOp27
 70
     1
102
RTVSPropertyOp28
 70
     1
102
RTVSPropertyOp29
 70
     1
102
RTVSPropertyOp30
 70
     1
102
RTVSPropertyOp31
 70
     1
102
RTVSPropertyOp32
 70
     1
102
RTVSPropertyOp33
 70
     1
102
RTVSPropertyOp34
 70
     1
102
RTVSPropertyOp35
 70
     1
102
RTVSPropertyOp36
 70
     1
102
RTVSPropertyOp37
 70
     1
102
RTVSPropertyOp38
 70
     1
102
RTVSPropertyOp39
 70
     1
102
RTVSPropertyOp40
 70
     1
102
RTVSPropertyOp41
 70
     1
102
RTVSPropertyOp42
 70
     1
102
RTVSPropertyOp43
 70
     1
102
RTVSPropertyOp44
 70
     1
102
RTVSPropertyOp45
 70
     1
102
RTVSPropertyOp46
 70
     1
102
RTVSPropertyOp47
 70
     1
102
RTVSPropertyOp48
 70
     1
102
RTVSPropertyOp49
 70
     1
102
RTVSPropertyOp50
 70
     1
102
RTVSPropertyOp51
 70
     0
102
RTVSPropertyOp52
 70
     0
102
RTVSPropertyOp53
 70
     1
102
RTVSPropertyOp54
 70
     1
102
RTVSPropertyOp55
 70
     1
102
RTVSPropertyOp56
 70
     1
102
RTVSPropertyOp57
 70
     1
102
RTVSPost2010Prop28
280
     0
102
RTVSPost2010PropOp28
 70
     1
102
RTVSPost2010Prop29
280
     1
102
RTVSPost2010PropOp29
 70
     1
102
RTVSPost2010Prop30
280
     1
102
RTVSPost2010PropOp30
 70
     1
102
RTVSPost2010Prop31
280
     0
102
RTVSPost2010PropOp31
 70
     1
102
RTVSPost2010Prop32
280
     0
102
RTVSPost2010PropOp32
 70
     1
102
RTVSPost2010Prop33
280
     0
102
RTVSPost2010PropOp33
 70
     1
102
RTVSPost2010Prop34
280
     0
102
RTVSPost2010PropOp34
 70
     1
102
RTVSPost2010Prop35
280
     0
102
RTVSPost2010PropOp35
 70
     1
102
RTVSPost2010Prop36
280
     0
102
RTVSPost2010PropOp36
 70
     1
102
RTVSPost2010Prop37
 90
       50
102
RTVSPost2010PropOp37
 70
     1
102
RTVSPost2010Prop38
140
0.0
102
RTVSPost2010PropOp38
 70
     1
102
RTVSPost2010Prop39
140
1.0
102
RTVSPost2010PropOp39
 70
     1
102
RTVSPost2010Prop40
 90
        0
102
RTVSPost2010PropOp40
 70
     1
102
RTVSPost2010Prop41ColorIndex
 90
       18
102
RTVSPost2010Prop41ColorRGB
 90
        0
102
RTVSPost2010PropOp41
 70
     1
102
RTVSPost2010Prop42
 90
       50
102
RTVSPost2010PropOp42
 70
     1
102
RTVSPost2010Prop43
 90
        3
102
RTVSPost2010PropOp43
 70
     1
102
RTVSPost2010Prop44ColorIndex
 90
        5
102
RTVSPost2010Prop44ColorRGB
 90
      255
102
RTVSPost2010PropOp44
 70
     1
102
RTVSPost2010Prop45
280
     0
102
RTVSPost2010PropOp45
 70
     1
102
RTVSPost2010Prop46
 90
       50
102
RTVSPost2010PropOp46
 70
     1
102
RTVSPost2010Prop47
 90
       50
102
RTVSPost2010PropOp47
 70
     1
102
RTVSPost2010Prop48
 90
       50
102
RTVSPost2010PropOp48
 70
     1
102
RTVSPost2010Prop49
280
     0
102
RTVSPost2010PropOp49
 70
     1
102
RTVSPost2010Prop50
 90
       50
102
RTVSPost2010PropOp50
 70
     1
102
RTVSPost2010Prop51ColorIndex
 90
      256
102
RTVSPost2010Prop51ColorRGB
 90
-16777216
102
RTVSPost2010PropOp51
 70
     0
102
RTVSPost2010Prop52
140
1.0
102
RTVSPost2010PropOp52
 70
     0
102
RTVSPost2010Prop53
 90
        2
102
RTVSPost2010PropOp53
 70
     1
102
RTVSPost2010Prop54
  1
strokes_ogs.tif
102
RTVSPost2010PropOp54
 70
     1
102
RTVSPost2010Prop55
280
     0
102
RTVSPost2010PropOp55
 70
     1
102
RTVSPost2010Prop56
140
1.0
102
RTVSPost2010PropOp56
 70
     1
102
RTVSPost2010Prop57
140
1.0
102
RTVSPost2010PropOp57
 70
     1
  0
XRECORD
  5
AE
102
{ACAD_REACTORS
330
AD
102
}
330
AD
100
AcDbXrecord
280
     1
102
RTVSPropertyOp0
 70
     1
102
RTVSPropertyOp1
 70
     1
102
RTVSPropertyOp2
 70
     1
102
RTVSPropertyOp3
 70
     1
102
RTVSPropertyOp4
 70
     1
102
RTVSPropertyOp5
 70
     1
102
RTVSPropertyOp6
 70
     1
102
RTVSPropertyOp7
 70
     1
102
RTVSPropertyOp8
 70
     1
102
RTVSPropertyOp9
 70
     1
102
RTVSPropertyOp10
 70
     1
102
RTVSPropertyOp11
 70
     1
102
RTVSPropertyOp12
 70
     1
102
RTVSPropertyOp13
 70
     1
102
RTVSPropertyOp14
 70
     1
102
RTVSPropertyOp15
 70
     1
102
RTVSPropertyOp16
 70
     1
102
RTVSPropertyOp17
 70
     1
102
RTVSPropertyOp18
 70
     1
102
RTVSPropertyOp19
 70
     1
102
RTVSPropertyOp20
 70
     1
102
RTVSPropertyOp21
 70
     1
102
RTVSPropertyOp22
 70
     1
102
RTVSPropertyOp23
 70
     1
102
RTVSPropertyOp24
 70
     1
102
RTVSPropertyOp25
 70
     1
102
RTVSPropertyOp26
 70
     1
102
RTVSPropertyOp27
 70
     1
102
RTVSPropertyOp28
 70
     1
102
RTVSPropertyOp29
 70
     1
102
RTVSPropertyOp30
 70
     1
102
RTVSPropertyOp31
 70
     1
102
RTVSPropertyOp32
 70
     1
102
RTVSPropertyOp33
 70
     1
102
RTVSPropertyOp34
 70
     1
102
RTVSPropertyOp35
 70
     1
102
RTVSPropertyOp36
 70
     1
102
RTVSPropertyOp37
 70
     1
102
RTVSPropertyOp38
 70
     1
102
RTVSPropertyOp39
 70
     1
102
RTVSPropertyOp40
 70
     1
102
RTVSPropertyOp41
 70
     1
102
RTVSPropertyOp42
 70
     1
102
RTVSPropertyOp43
 70
     1
102
RTVSPropertyOp44
 70
     1
102
RTVSPropertyOp45
 70
     1
102
RTVSPropertyOp46
 70
     1
102
RTVSPropertyOp47
 70
     1
102
RTVSPropertyOp48
 70
     1
102
RTVSPropertyOp49
 70
     1
102
RTVSPropertyOp50
 70
     1
102
RTVSPropertyOp51
 70
     0
102
RTVSPropertyOp52
 70
     0
102
RTVSPropertyOp53
 70
     1
102
RTVSPropertyOp54
 70
     1
102
RTVSPropertyOp55
 70
     1
102
RTVSPropertyOp56
 70
     1
102
RTVSPropertyOp57
 70
     1
102
RTVSPost2010Prop28
280
     0
102
RTVSPost2010PropOp28
 70
     1
102
RTVSPost2010Prop29
280
     1
102
RTVSPost2010PropOp29
 70
     1
102
RTVSPost2010Prop30
280
     1
102
RTVSPost2010PropOp30
 70
     1
102
RTVSPost2010Prop31
280
     0
102
RTVSPost2010PropOp31
 70
     1
102
RTVSPost2010Prop32
280
     0
102
RTVSPost2010PropOp32
 70
     1
102
RTVSPost2010Prop33
280
     0
102
RTVSPost2010PropOp33
 70
     1
102
RTVSPost2010Prop34
280
     0
102
RTVSPost2010PropOp34
 70
     1
102
RTVSPost2010Prop35
280
     0
102
RTVSPost2010PropOp35
 70
     1
102
RTVSPost2010Prop36
280
     0
102
RTVSPost2010PropOp36
 70
     1
102
RTVSPost2010Prop37
 90
       50
102
RTVSPost2010PropOp37
 70
     1
102
RTVSPost2010Prop38
140
0.0
102
RTVSPost2010PropOp38
 70
     1
102
RTVSPost2010Prop39
140
1.0
102
RTVSPost2010PropOp39
 70
     1
102
RTVSPost2010Prop40
 90
        0
102
RTVSPost2010PropOp40
 70
     1
102
RTVSPost2010Prop41ColorIndex
 90
       18
102
RTVSPost2010Prop41ColorRGB
 90
        0
102
RTVSPost2010PropOp41
 70
     1
102
RTVSPost2010Prop42
 90
       50
102
RTVSPost2010PropOp42
 70
     1
102
RTVSPost2010Prop43
 90
        3
102
RTVSPost2010PropOp43
 70
     1
102
RTVSPost2010Prop44ColorIndex
 90
        5
102
RTVSPost2010Prop44ColorRGB
 90
      255
102
RTVSPost2010PropOp44
 70
     1
102
RTVSPost2010Prop45
280
     0
102
RTVSPost2010PropOp45
 70
     1
102
RTVSPost2010Prop46
 90
       50
102
RTVSPost2010PropOp46
 70
     1
102
RTVSPost2010Prop47
 90
       50
102
RTVSPost2010PropOp47
 70
     1
102
RTVSPost2010Prop48
 90
       50
102
RTVSPost2010PropOp48
 70
     1
102
RTVSPost2010Prop49
280
     0
102
RTVSPost2010PropOp49
 70
     1
102
RTVSPost2010Prop50
 90
       50
102
RTVSPost2010PropOp50
 70
     1
102
RTVSPost2010Prop51ColorIndex
 90
      256
102
RTVSPost2010Prop51ColorRGB
 90
-16777216
102
RTVSPost2010PropOp51
 70
     0
102
RTVSPost2010Prop52
140
1.0
102
RTVSPost2010PropOp52
 70
     0
102
RTVSPost2010Prop53
 90
        2
102
RTVSPost2010PropOp53
 70
     1
102
RTVSPost2010Prop54
  1
strokes_ogs.tif
102
RTVSPost2010PropOp54
 70
     1
102
RTVSPost2010Prop55
280
     0
102
RTVSPost2010PropOp55
 70
     1
102
RTVSPost2010Prop56
140
1.0
102
RTVSPost2010PropOp56
 70
     1
102
RTVSPost2010Prop57
140
1.0
102
RTVSPost2010PropOp57
 70
     1
  0
XRECORD
  5
9E
102
{ACAD_REACTORS
330
9D
102
}
330
9D
100
AcDbXrecord
280
     1
102
RTVSPropertyOp0
 70
     1
102
RTVSPropertyOp1
 70
     1
102
RTVSPropertyOp2
 70
     1
102
RTVSPropertyOp3
 70
     1
102
RTVSPropertyOp4
 70
     1
102
RTVSPropertyOp5
 70
     1
102
RTVSPropertyOp6
 70
     1
102
RTVSPropertyOp7
 70
     1
102
RTVSPropertyOp8
 70
     1
102
RTVSPropertyOp9
 70
     1
102
RTVSPropertyOp10
 70
     1
102
RTVSPropertyOp11
 70
     1
102
RTVSPropertyOp12
 70
     1
102
RTVSPropertyOp13
 70
     1
102
RTVSPropertyOp14
 70
     1
102
RTVSPropertyOp15
 70
     1
102
RTVSPropertyOp16
 70
     1
102
RTVSPropertyOp17
 70
     1
102
RTVSPropertyOp18
 70
     1
102
RTVSPropertyOp19
 70
     1
102
RTVSPropertyOp20
 70
     1
102
RTVSPropertyOp21
 70
     1
102
RTVSPropertyOp22
 70
     1
102
RTVSPropertyOp23
 70
     1
102
RTVSPropertyOp24
 70
     1
102
RTVSPropertyOp25
 70
     1
102
RTVSPropertyOp26
 70
     1
102
RTVSPropertyOp27
 70
     1
102
RTVSPropertyOp28
 70
     1
102
RTVSPropertyOp29
 70
     1
102
RTVSPropertyOp30
 70
     1
102
RTVSPropertyOp31
 70
     1
102
RTVSPropertyOp32
 70
     1
102
RTVSPropertyOp33
 70
     1
102
RTVSPropertyOp34
 70
     1
102
RTVSPropertyOp35
 70
     1
102
RTVSPropertyOp36
 70
     1
102
RTVSPropertyOp37
 70
     1
102
RTVSPropertyOp38
 70
     1
102
RTVSPropertyOp39
 70
     1
102
RTVSPropertyOp40
 70
     1
102
RTVSPropertyOp41
 70
     1
102
RTVSPropertyOp42
 70
     1
102
RTVSPropertyOp43
 70
     1
102
RTVSPropertyOp44
 70
     1
102
RTVSPropertyOp45
 70
     1
102
RTVSPropertyOp46
 70
     1
102
RTVSPropertyOp47
 70
     1
102
RTVSPropertyOp48
 70
     1
102
RTVSPropertyOp49
 70
     1
102
RTVSPropertyOp50
 70
     1
102
RTVSPropertyOp51
 70
     0
102
RTVSPropertyOp52
 70
     0
102
RTVSPropertyOp53
 70
     1
102
RTVSPropertyOp54
 70
     1
102
RTVSPropertyOp55
 70
     1
102
RTVSPropertyOp56
 70
     1
102
RTVSPropertyOp57
 70
     1
102
RTVSPost2010Prop28
280
     0
102
RTVSPost2010PropOp28
 70
     1
102
RTVSPost2010Prop29
280
     1
102
RTVSPost2010PropOp29
 70
     1
102
RTVSPost2010Prop30
280
     1
102
RTVSPost2010PropOp30
 70
     1
102
RTVSPost2010Prop31
280
     0
102
RTVSPost2010PropOp31
 70
     1
102
RTVSPost2010Prop32
280
     0
102
RTVSPost2010PropOp32
 70
     1
102
RTVSPost2010Prop33
280
     0
102
RTVSPost2010PropOp33
 70
     1
102
RTVSPost2010Prop34
280
     0
102
RTVSPost2010PropOp34
 70
     1
102
RTVSPost2010Prop35
280
     0
102
RTVSPost2010PropOp35
 70
     1
102
RTVSPost2010Prop36
280
     0
102
RTVSPost2010PropOp36
 70
     1
102
RTVSPost2010Prop37
 90
       50
102
RTVSPost2010PropOp37
 70
     1
102
RTVSPost2010Prop38
140
0.0
102
RTVSPost2010PropOp38
 70
     1
102
RTVSPost2010Prop39
140
1.0
102
RTVSPost2010PropOp39
 70
     1
102
RTVSPost2010Prop40
 90
        0
102
RTVSPost2010PropOp40
 70
     1
102
RTVSPost2010Prop41ColorIndex
 90
       18
102
RTVSPost2010Prop41ColorRGB
 90
        0
102
RTVSPost2010PropOp41
 70
     1
102
RTVSPost2010Prop42
 90
       50
102
RTVSPost2010PropOp42
 70
     1
102
RTVSPost2010Prop43
 90
        3
102
RTVSPost2010PropOp43
 70
     1
102
RTVSPost2010Prop44ColorIndex
 90
        5
102
RTVSPost2010Prop44ColorRGB
 90
      255
102
RTVSPost2010PropOp44
 70
     1
102
RTVSPost2010Prop45
280
     0
102
RTVSPost2010PropOp45
 70
     1
102
RTVSPost2010Prop46
 90
       50
102
RTVSPost2010PropOp46
 70
     1
102
RTVSPost2010Prop47
 90
       50
102
RTVSPost2010PropOp47
 70
     1
102
RTVSPost2010Prop48
 90
       50
102
RTVSPost2010PropOp48
 70
     1
102
RTVSPost2010Prop49
280
     0
102
RTVSPost2010PropOp49
 70
     1
102
RTVSPost2010Prop50
 90
       50
102
RTVSPost2010PropOp50
 70
     1
102
RTVSPost2010Prop51ColorIndex
 90
      256
102
RTVSPost2010Prop51ColorRGB
 90
-16777216
102
RTVSPost2010PropOp51
 70
     0
102
RTVSPost2010Prop52
140
1.0
102
RTVSPost2010PropOp52
 70
     0
102
RTVSPost2010Prop53
 90
        2
102
RTVSPost2010PropOp53
 70
     1
102
RTVSPost2010Prop54
  1
strokes_ogs.tif
102
RTVSPost2010PropOp54
 70
     1
102
RTVSPost2010Prop55
280
     0
102
RTVSPost2010PropOp55
 70
     1
102
RTVSPost2010Prop56
140
1.0
102
RTVSPost2010PropOp56
 70
     1
102
RTVSPost2010Prop57
140
1.0
102
RTVSPost2010PropOp57
 70
     1
  0
XRECORD
  5
90
102
{ACAD_REACTORS
330
8F
102
}
330
8F
100
AcDbXrecord
280
     1
102
RTVSPropertyOp0
 70
     1
102
RTVSPropertyOp1
 70
     1
102
RTVSPropertyOp2
 70
     1
102
RTVSPropertyOp3
 70
     1
102
RTVSPropertyOp4
 70
     1
102
RTVSPropertyOp5
 70
     1
102
RTVSPropertyOp6
 70
     1
102
RTVSPropertyOp7
 70
     1
102
RTVSPropertyOp8
 70
     1
102
RTVSPropertyOp9
 70
     1
102
RTVSPropertyOp10
 70
     1
102
RTVSPropertyOp11
 70
     1
102
RTVSPropertyOp12
 70
     1
102
RTVSPropertyOp13
 70
     1
102
RTVSPropertyOp14
 70
     1
102
RTVSPropertyOp15
 70
     1
102
RTVSPropertyOp16
 70
     1
102
RTVSPropertyOp17
 70
     1
102
RTVSPropertyOp18
 70
     1
102
RTVSPropertyOp19
 70
     1
102
RTVSPropertyOp20
 70
     1
102
RTVSPropertyOp21
 70
     1
102
RTVSPropertyOp22
 70
     1
102
RTVSPropertyOp23
 70
     1
102
RTVSPropertyOp24
 70
     1
102
RTVSPropertyOp25
 70
     1
102
RTVSPropertyOp26
 70
     1
102
RTVSPropertyOp27
 70
     1
102
RTVSPropertyOp28
 70
     1
102
RTVSPropertyOp29
 70
     1
102
RTVSPropertyOp30
 70
     1
102
RTVSPropertyOp31
 70
     1
102
RTVSPropertyOp32
 70
     1
102
RTVSPropertyOp33
 70
     1
102
RTVSPropertyOp34
 70
     1
102
RTVSPropertyOp35
 70
     1
102
RTVSPropertyOp36
 70
     1
102
RTVSPropertyOp37
 70
     1
102
RTVSPropertyOp38
 70
     1
102
RTVSPropertyOp39
 70
     1
102
RTVSPropertyOp40
 70
     1
102
RTVSPropertyOp41
 70
     1
102
RTVSPropertyOp42
 70
     1
102
RTVSPropertyOp43
 70
     1
102
RTVSPropertyOp44
 70
     1
102
RTVSPropertyOp45
 70
     1
102
RTVSPropertyOp46
 70
     1
102
RTVSPropertyOp47
 70
     1
102
RTVSPropertyOp48
 70
     1
102
RTVSPropertyOp49
 70
     1
102
RTVSPropertyOp50
 70
     1
102
RTVSPropertyOp51
 70
     0
102
RTVSPropertyOp52
 70
     0
102
RTVSPropertyOp53
 70
     1
102
RTVSPropertyOp54
 70
     1
102
RTVSPropertyOp55
 70
     1
102
RTVSPropertyOp56
 70
     1
102
RTVSPropertyOp57
 70
     1
102
RTVSPost2010Prop28
280
     0
102
RTVSPost2010PropOp28
 70
     1
102
RTVSPost2010Prop29
280
     1
102
RTVSPost2010PropOp29
 70
     1
102
RTVSPost2010Prop30
280
     1
102
RTVSPost2010PropOp30
 70
     1
102
RTVSPost2010Prop31
280
     0
102
RTVSPost2010PropOp31
 70
     1
102
RTVSPost2010Prop32
280
     0
102
RTVSPost2010PropOp32
 70
     1
102
RTVSPost2010Prop33
280
     0
102
RTVSPost2010PropOp33
 70
     1
102
RTVSPost2010Prop34
280
     0
102
RTVSPost2010PropOp34
 70
     1
102
RTVSPost2010Prop35
280
     0
102
RTVSPost2010PropOp35
 70
     1
102
RTVSPost2010Prop36
280
     0
102
RTVSPost2010PropOp36
 70
     1
102
RTVSPost2010Prop37
 90
       50
102
RTVSPost2010PropOp37
 70
     1
102
RTVSPost2010Prop38
140
0.0
102
RTVSPost2010PropOp38
 70
     1
102
RTVSPost2010Prop39
140
1.0
102
RTVSPost2010PropOp39
 70
     1
102
RTVSPost2010Prop40
 90
        0
102
RTVSPost2010PropOp40
 70
     1
102
RTVSPost2010Prop41ColorIndex
 90
       18
102
RTVSPost2010Prop41ColorRGB
 90
        0
102
RTVSPost2010PropOp41
 70
     1
102
RTVSPost2010Prop42
 90
       50
102
RTVSPost2010PropOp42
 70
     1
102
RTVSPost2010Prop43
 90
        3
102
RTVSPost2010PropOp43
 70
     1
102
RTVSPost2010Prop44ColorIndex
 90
        5
102
RTVSPost2010Prop44ColorRGB
 90
      255
102
RTVSPost2010PropOp44
 70
     1
102
RTVSPost2010Prop45
280
     0
102
RTVSPost2010PropOp45
 70
     1
102
RTVSPost2010Prop46
 90
       50
102
RTVSPost2010PropOp46
 70
     1
102
RTVSPost2010Prop47
 90
       50
102
RTVSPost2010PropOp47
 70
     1
102
RTVSPost2010Prop48
 90
       50
102
RTVSPost2010PropOp48
 70
     1
102
RTVSPost2010Prop49
280
     0
102
RTVSPost2010PropOp49
 70
     1
102
RTVSPost2010Prop50
 90
       50
102
RTVSPost2010PropOp50
 70
     1
102
RTVSPost2010Prop51ColorIndex
 90
      256
102
RTVSPost2010Prop51ColorRGB
 90
-16777216
102
RTVSPost2010PropOp51
 70
     0
102
RTVSPost2010Prop52
140
1.0
102
RTVSPost2010PropOp52
 70
     0
102
RTVSPost2010Prop53
 90
        2
102
RTVSPost2010PropOp53
 70
     1
102
RTVSPost2010Prop54
  1
strokes_ogs.tif
102
RTVSPost2010PropOp54
 70
     1
102
RTVSPost2010Prop55
280
     0
102
RTVSPost2010PropOp55
 70
     1
102
RTVSPost2010Prop56
140
1.0
102
RTVSPost2010PropOp56
 70
     1
102
RTVSPost2010Prop57
140
1.0
102
RTVSPost2010PropOp57
 70
     1
  0
XRECORD
  5
B0
102
{ACAD_REACTORS
330
AF
102
}
330
AF
100
AcDbXrecord
280
     1
102
RTVSPropertyOp0
 70
     1
102
RTVSPropertyOp1
 70
     1
102
RTVSPropertyOp2
 70
     1
102
RTVSPropertyOp3
 70
     1
102
RTVSPropertyOp4
 70
     1
102
RTVSPropertyOp5
 70
     1
102
RTVSPropertyOp6
 70
     1
102
RTVSPropertyOp7
 70
     1
102
RTVSPropertyOp8
 70
     1
102
RTVSPropertyOp9
 70
     1
102
RTVSPropertyOp10
 70
     1
102
RTVSPropertyOp11
 70
     1
102
RTVSPropertyOp12
 70
     1
102
RTVSPropertyOp13
 70
     1
102
RTVSPropertyOp14
 70
     1
102
RTVSPropertyOp15
 70
     1
102
RTVSPropertyOp16
 70
     1
102
RTVSPropertyOp17
 70
     1
102
RTVSPropertyOp18
 70
     1
102
RTVSPropertyOp19
 70
     1
102
RTVSPropertyOp20
 70
     1
102
RTVSPropertyOp21
 70
     1
102
RTVSPropertyOp22
 70
     1
102
RTVSPropertyOp23
 70
     1
102
RTVSPropertyOp24
 70
     1
102
RTVSPropertyOp25
 70
     1
102
RTVSPropertyOp26
 70
     1
102
RTVSPropertyOp27
 70
     1
102
RTVSPropertyOp28
 70
     1
102
RTVSPropertyOp29
 70
     1
102
RTVSPropertyOp30
 70
     1
102
RTVSPropertyOp31
 70
     1
102
RTVSPropertyOp32
 70
     1
102
RTVSPropertyOp33
 70
     1
102
RTVSPropertyOp34
 70
     1
102
RTVSPropertyOp35
 70
     1
102
RTVSPropertyOp36
 70
     1
102
RTVSPropertyOp37
 70
     1
102
RTVSPropertyOp38
 70
     1
102
RTVSPropertyOp39
 70
     1
102
RTVSPropertyOp40
 70
     1
102
RTVSPropertyOp41
 70
     1
102
RTVSPropertyOp42
 70
     1
102
RTVSPropertyOp43
 70
     1
102
RTVSPropertyOp44
 70
     1
102
RTVSPropertyOp45
 70
     1
102
RTVSPropertyOp46
 70
     1
102
RTVSPropertyOp47
 70
     1
102
RTVSPropertyOp48
 70
     1
102
RTVSPropertyOp49
 70
     1
102
RTVSPropertyOp50
 70
     1
102
RTVSPropertyOp51
 70
     0
102
RTVSPropertyOp52
 70
     0
102
RTVSPropertyOp53
 70
     1
102
RTVSPropertyOp54
 70
     1
102
RTVSPropertyOp55
 70
     1
102
RTVSPropertyOp56
 70
     1
102
RTVSPropertyOp57
 70
     1
102
RTVSPost2010Prop28
280
     0
102
RTVSPost2010PropOp28
 70
     1
102
RTVSPost2010Prop29
280
     1
102
RTVSPost2010PropOp29
 70
     1
102
RTVSPost2010Prop30
280
     1
102
RTVSPost2010PropOp30
 70
     1
102
RTVSPost2010Prop31
280
     0
102
RTVSPost2010PropOp31
 70
     1
102
RTVSPost2010Prop32
280
     0
102
RTVSPost2010PropOp32
 70
     1
102
RTVSPost2010Prop33
280
     0
102
RTVSPost2010PropOp33
 70
     1
102
RTVSPost2010Prop34
280
     0
102
RTVSPost2010PropOp34
 70
     1
102
RTVSPost2010Prop35
280
     0
102
RTVSPost2010PropOp35
 70
     1
102
RTVSPost2010Prop36
280
     0
102
RTVSPost2010PropOp36
 70
     1
102
RTVSPost2010Prop37
 90
       50
102
RTVSPost2010PropOp37
 70
     1
102
RTVSPost2010Prop38
140
0.0
102
RTVSPost2010PropOp38
 70
     1
102
RTVSPost2010Prop39
140
1.0
102
RTVSPost2010PropOp39
 70
     1
102
RTVSPost2010Prop40
 90
        0
102
RTVSPost2010PropOp40
 70
     1
102
RTVSPost2010Prop41ColorIndex
 90
       18
102
RTVSPost2010Prop41ColorRGB
 90
        0
102
RTVSPost2010PropOp41
 70
     1
102
RTVSPost2010Prop42
 90
       50
102
RTVSPost2010PropOp42
 70
     1
102
RTVSPost2010Prop43
 90
        3
102
RTVSPost2010PropOp43
 70
     1
102
RTVSPost2010Prop44ColorIndex
 90
        5
102
RTVSPost2010Prop44ColorRGB
 90
      255
102
RTVSPost2010PropOp44
 70
     1
102
RTVSPost2010Prop45
280
     0
102
RTVSPost2010PropOp45
 70
     1
102
RTVSPost2010Prop46
 90
       50
102
RTVSPost2010PropOp46
 70
     1
102
RTVSPost2010Prop47
 90
       50
102
RTVSPost2010PropOp47
 70
     1
102
RTVSPost2010Prop48
 90
       50
102
RTVSPost2010PropOp48
 70
     1
102
RTVSPost2010Prop49
280
     0
102
RTVSPost2010PropOp49
 70
     1
102
RTVSPost2010Prop50
 90
       50
102
RTVSPost2010PropOp50
 70
     1
102
RTVSPost2010Prop51ColorIndex
 90
      256
102
RTVSPost2010Prop51ColorRGB
 90
-16777216
102
RTVSPost2010PropOp51
 70
     0
102
RTVSPost2010Prop52
140
1.0
102
RTVSPost2010PropOp52
 70
     0
102
RTVSPost2010Prop53
 90
        2
102
RTVSPost2010PropOp53
 70
     1
102
RTVSPost2010Prop54
  1
strokes_ogs.tif
102
RTVSPost2010PropOp54
 70
     1
102
RTVSPost2010Prop55
280
     0
102
RTVSPost2010PropOp55
 70
     1
102
RTVSPost2010Prop56
140
1.0
102
RTVSPost2010PropOp56
 70
     1
102
RTVSPost2010Prop57
140
1.0
102
RTVSPost2010PropOp57
 70
     1
  0
ENDSEC
  0
EOF
