  0
SECTION
  2
HEADER
  9
$ACADVER
  1
AC1021
  9
$ACADMAINTVER
 70
    25
  9
$DWGCODEPAGE
  3
ANSI_1252
  9
$LASTSAVEDBY
  1
Amraoui55
  9
$INSBASE
 10
0.0
 20
0.0
 30
0.0
  9
$EXTMIN
 10
-39.14923
 20
-8.8596
 30
0.0
  9
$EXTMAX
 10
-21.90001
 20
11.47333
 30
0.0
  9
$LIMMIN
 10
0.0
 20
0.0
  9
$LIMMAX
 10
12.0
 20
9.0
  9
$ORTHOMODE
 70
     0
  9
$REGENMODE
 70
     1
  9
$FILLMODE
 70
     1
  9
$QTEXTMODE
 70
     0
  9
$MIRRTEXT
 70
     1
  9
$LTSCALE
 40
1.0
  9
$ATTMODE
 70
     1
  9
$TEXTSIZE
 40
0.2
  9
$TRACEWID
 40
0.05
  9
$TEXTSTYLE
  7
Standard
  9
$CLAYER
  8
0
  9
$CELTYPE
  6
ByLayer
  9
$CECOLOR
 62
   256
  9
$CELTSCALE
 40
1.0
  9
$DISPSILH
 70
     0
  9
$DIMSCALE
 40
1.0
  9
$DIMASZ
 40
0.18
  9
$DIMEXO
 40
0.0625
  9
$DIMDLI
 40
0.38
  9
$DIMRND
 40
0.0
  9
$DIMDLE
 40
0.0
  9
$DIMEXE
 40
0.18
  9
$DIMTP
 40
0.0
  9
$DIMTM
 40
0.0
  9
$DIMTXT
 40
0.18
  9
$DIMCEN
 40
0.09
  9
$DIMTSZ
 40
0.0
  9
$DIMTOL
 70
     0
  9
$DIMLIM
 70
     0
  9
$DIMTIH
 70
     1
  9
$DIMTOH
 70
     1
  9
$DIMSE1
 70
     0
  9
$DIMSE2
 70
     0
  9
$DIMTAD
 70
     0
  9
$DIMZIN
 70
     0
  9
$DIMBLK
  1

  9
$DIMASO
 70
     1
  9
$DIMSHO
 70
     1
  9
$DIMPOST
  1

  9
$DIMAPOST
  1

  9
$DIMALT
 70
     0
  9
$DIMALTD
 70
     2
  9
$DIMALTF
 40
25.4
  9
$DIMLFAC
 40
1.0
  9
$DIMTOFL
 70
     0
  9
$DIMTVP
 40
0.0
  9
$DIMTIX
 70
     0
  9
$DIMSOXD
 70
     0
  9
$DIMSAH
 70
     0
  9
$DIMBLK1
  1

  9
$DIMBLK2
  1

  9
$DIMSTYLE
  2
Standard
  9
$DIMCLRD
 70
     0
  9
$DIMCLRE
 70
     0
  9
$DIMCLRT
 70
     0
  9
$DIMTFAC
 40
1.0
  9
$DIMGAP
 40
0.09
  9
$DIMJUST
 70
     0
  9
$DIMSD1
 70
     0
  9
$DIMSD2
 70
     0
  9
$DIMTOLJ
 70
     1
  9
$DIMTZIN
 70
     0
  9
$DIMALTZ
 70
     0
  9
$DIMALTTZ
 70
     0
  9
$DIMUPT
 70
     0
  9
$DIMDEC
 70
     4
  9
$DIMTDEC
 70
     4
  9
$DIMALTU
 70
     2
  9
$DIMALTTD
 70
     2
  9
$DIMTXSTY
  7
Standard
  9
$DIMAUNIT
 70
     0
  9
$DIMADEC
 70
     0
  9
$DIMALTRND
 40
0.0
  9
$DIMAZIN
 70
     0
  9
$DIMDSEP
 70
    46
  9
$DIMATFIT
 70
     3
  9
$DIMFRAC
 70
     0
  9
$DIMLDRBLK
  1

  9
$DIMLUNIT
 70
     2
  9
$DIMLWD
 70
    -2
  9
$DIMLWE
 70
    -2
  9
$DIMTMOVE
 70
     0
  9
$DIMFXL
 40
1.0
  9
$DIMFXLON
 70
     0
  9
$DIMJOGANG
 40
0.7853981633974483
  9
$DIMTFILL
 70
     0
  9
$DIMTFILLCLR
 70
     0
  9
$DIMARCSYM
 70
     0
  9
$DIMLTYPE
  6

  9
$DIMLTEX1
  6

  9
$DIMLTEX2
  6

  9
$LUNITS
 70
     2
  9
$LUPREC
 70
     4
  9
$SKETCHINC
 40
0.1
  9
$FILLETRAD
 40
0.5
  9
$AUNITS
 70
     0
  9
$AUPREC
 70
     0
  9
$MENU
  1
.
  9
$ELEVATION
 40
0.0
  9
$PELEVATION
 40
0.0
  9
$THICKNESS
 40
0.0
  9
$LIMCHECK
 70
     0
  9
$CHAMFERA
 40
0.0
  9
$CHAMFERB
 40
0.0
  9
$CHAMFERC
 40
0.0
  9
$CHAMFERD
 40
0.0
  9
$SKPOLY
 70
     0
  9
$TDCREATE
 40
2459239.774021018
  9
$TDUCREATE
 40
2459239.732354352
  9
$TDUPDATE
 40
2459239.774021042
  9
$TDUUPDATE
 40
2459239.732354375
  9
$TDINDWG
 40
0.0000000116
  9
$TDUSRTIMER
 40
0.0000000116
  9
$USRTIMER
 70
     1
  9
$ANGBASE
 50
0.0
  9
$ANGDIR
 70
     0
  9
$PDMODE
 70
     0
  9
$PDSIZE
 40
0.0
  9
$PLINEWID
 40
0.0
  9
$SPLFRAME
 70
     0
  9
$SPLINETYPE
 70
     6
  9
$SPLINESEGS
 70
     8
  9
$HANDSEED
  5
CA
  9
$SURFTAB1
 70
     6
  9
$SURFTAB2
 70
     6
  9
$SURFTYPE
 70
     6
  9
$SURFU
 70
     6
  9
$SURFV
 70
     6
  9
$UCSBASE
  2

  9
$UCSNAME
  2

  9
$UCSORG
 10
0.0
 20
0.0
 30
0.0
  9
$UCSXDIR
 10
1.0
 20
0.0
 30
0.0
  9
$UCSYDIR
 10
0.0
 20
1.0
 30
0.0
  9
$UCSORTHOREF
  2

  9
$UCSORTHOVIEW
 70
     0
  9
$UCSORGTOP
 10
0.0
 20
0.0
 30
0.0
  9
$UCSORGBOTTOM
 10
0.0
 20
0.0
 30
0.0
  9
$UCSORGLEFT
 10
0.0
 20
0.0
 30
0.0
  9
$UCSORGRIGHT
 10
0.0
 20
0.0
 30
0.0
  9
$UCSORGFRONT
 10
0.0
 20
0.0
 30
0.0
  9
$UCSORGBACK
 10
0.0
 20
0.0
 30
0.0
  9
$PUCSBASE
  2

  9
$PUCSNAME
  2

  9
$PUCSORG
 10
0.0
 20
0.0
 30
0.0
  9
$PUCSXDIR
 10
1.0
 20
0.0
 30
0.0
  9
$PUCSYDIR
 10
0.0
 20
1.0
 30
0.0
  9
$PUCSORTHOREF
  2

  9
$PUCSORTHOVIEW
 70
     0
  9
$PUCSORGTOP
 10
0.0
 20
0.0
 30
0.0
  9
$PUCSORGBOTTOM
 10
0.0
 20
0.0
 30
0.0
  9
$PUCSORGLEFT
 10
0.0
 20
0.0
 30
0.0
  9
$PUCSORGRIGHT
 10
0.0
 20
0.0
 30
0.0
  9
$PUCSORGFRONT
 10
0.0
 20
0.0
 30
0.0
  9
$PUCSORGBACK
 10
0.0
 20
0.0
 30
0.0
  9
$USERI1
 70
     0
  9
$USERI2
 70
     0
  9
$USERI3
 70
     0
  9
$USERI4
 70
     0
  9
$USERI5
 70
     0
  9
$USERR1
 40
0.0
  9
$USERR2
 40
0.0
  9
$USERR3
 40
0.0
  9
$USERR4
 40
0.0
  9
$USERR5
 40
0.0
  9
$WORLDVIEW
 70
     1
  9
$SHADEDGE
 70
     3
  9
$SHADEDIF
 70
    70
  9
$TILEMODE
 70
     1
  9
$MAXACTVP
 70
    64
  9
$PINSBASE
 10
0.0
 20
0.0
 30
0.0
  9
$PLIMCHECK
 70
     0
  9
$PEXTMIN
 10
1.000000000000000E+20
 20
1.000000000000000E+20
 30
1.000000000000000E+20
  9
$PEXTMAX
 10
-1.000000000000000E+20
 20
-1.000000000000000E+20
 30
-1.000000000000000E+20
  9
$PLIMMIN
 10
0.0
 20
0.0
  9
$PLIMMAX
 10
12.0
 20
9.0
  9
$UNITMODE
 70
     0
  9
$VISRETAIN
 70
     1
  9
$PLINEGEN
 70
     0
  9
$PSLTSCALE
 70
     1
  9
$TREEDEPTH
 70
  3020
  9
$CMLSTYLE
  2
Standard
  9
$CMLJUST
 70
     0
  9
$CMLSCALE
 40
1.0
  9
$PROXYGRAPHICS
 70
     1
  9
$MEASUREMENT
 70
     0
  9
$CELWEIGHT
370
    -1
  9
$ENDCAPS
280
     0
  9
$JOINSTYLE
280
     0
  9
$LWDISPLAY
290
     0
  9
$INSUNITS
 70
     5
  9
$HYPERLINKBASE
  1

  9
$STYLESHEET
  1

  9
$XEDIT
290
     1
  9
$CEPSNTYPE
380
     0
  9
$PSTYLEMODE
290
     1
  9
$FINGERPRINTGUID
  2
{7981c3ea-e590-4c54-80f6-e4592873db09}
  9
$VERSIONGUID
  2
{FAEB1C32-E019-11D5-929B-00C0DF256EC4}
  9
$EXTNAMES
290
     1
  9
$PSVPSCALE
 40
0.0
  9
$OLESTARTUP
290
     0
  9
$SORTENTS
280
   127
  9
$INDEXCTL
280
     0
  9
$HIDETEXT
280
     1
  9
$XCLIPFRAME
290
     0
  9
$HALOGAP
280
     0
  9
$OBSCOLOR
 70
   257
  9
$OBSLTYPE
280
     0
  9
$INTERSECTIONDISPLAY
280
     0
  9
$INTERSECTIONCOLOR
 70
   257
  9
$DIMASSOC
280
     2
  9
$PROJECTNAME
  1

  9
$CAMERADISPLAY
290
     0
  9
$LENSLENGTH
 40
50.0
  9
$CAMERAHEIGHT
 40
0.0
  9
$STEPSPERSEC
 40
2.0
  9
$STEPSIZE
 40
6.0
  9
$3DDWFPREC
 40
2.0
  9
$PSOLWIDTH
 40
0.25
  9
$PSOLHEIGHT
 40
4.0
  9
$LOFTANG1
 40
1.570796326794897
  9
$LOFTANG2
 40
1.570796326794897
  9
$LOFTMAG1
 40
0.0
  9
$LOFTMAG2
 40
0.0
  9
$LOFTPARAM
 70
     7
  9
$LOFTNORMALS
280
     1
  9
$LATITUDE
 40
37.795
  9
$LONGITUDE
 40
-122.394
  9
$NORTHDIRECTION
 40
0.0
  9
$TIMEZONE
 70
 -8000
  9
$LIGHTGLYPHDISPLAY
280
     1
  9
$TILEMODELIGHTSYNCH
280
     1
  9
$CMATERIAL
347
44
  9
$SOLIDHIST
280
     0
  9
$SHOWHIST
280
     1
  9
$DWFFRAME
280
     2
  9
$DGNFRAME
280
     2
  9
$REALWORLDSCALE
290
     1
  9
$INTERFERECOLOR
 62
   256
  9
$CSHADOW
280
     0
  9
$SHADOWPLANELOCATION
 40
0.0
  0
ENDSEC
  0
SECTION
  2
CLASSES
  0
CLASS
  1
ACDBDICTIONARYWDFLT
  2
AcDbDictionaryWithDefault
  3
ObjectDBX Classes
 90
        0
 91
        3
280
     0
281
     0
  0
CLASS
  1
VISUALSTYLE
  2
AcDbVisualStyle
  3
ObjectDBX Classes
 90
     4095
 91
        3
280
     0
281
     0
  0
CLASS
  1
MATERIAL
  2
AcDbMaterial
  3
ObjectDBX Classes
 90
     1153
 91
        3
280
     0
281
     0
  0
CLASS
  1
SCALE
  2
AcDbScale
  3
ObjectDBX Classes
 90
     1153
 91
        3
280
     0
281
     0
  0
CLASS
  1
TABLESTYLE
  2
AcDbTableStyle
  3
ObjectDBX Classes
 90
     4095
 91
        3
280
     0
281
     0
  0
CLASS
  1
MLEADERSTYLE
  2
AcDbMLeaderStyle
  3
ACDB_MLEADERSTYLE_CLASS
 90
     4095
 91
        3
280
     0
281
     0
  0
CLASS
  1
SUN
  2
AcDbSun
  3
SCENEOE
 90
     1153
 91
        3
280
     0
281
     0
  0
CLASS
  1
DICTIONARYVAR
  2
AcDbDictionaryVar
  3
ObjectDBX Classes
 90
        0
 91
        3
280
     0
281
     0
  0
CLASS
  1
CELLSTYLEMAP
  2
AcDbCellStyleMap
  3
ObjectDBX Classes
 90
     1152
 91
        3
280
     0
281
     0
  0
ENDSEC
  0
SECTION
  2
TABLES
  0
TABLE
  2
VPORT
  5
8
330
0
100
AcDbSymbolTable
 70
     1
  0
VPORT
  5
29
330
8
100
AcDbSymbolTableRecord
100
AcDbViewportTableRecord
  2
*Active
 70
     0
 10
0.0
 20
0.0
 11
1.0
 21
1.0
 12
10.42990654205607
 22
4.5
 13
0.0
 23
0.0
 14
0.5
 24
0.5
 15
0.5
 25
0.5
 16
0.0
 26
0.0
 36
1.0
 17
0.0
 27
0.0
 37
0.0
 40
9.0
 41
1.972972972850329
 42
50.0
 43
0.0
 44
0.0
 50
0.0
 51
0.0
 71
     0
 72
   100
 73
     1
 74
     3
 75
     0
 76
     0
 77
     0
 78
     0
281
     0
 65
     1
110
0.0
120
0.0
130
0.0
111
1.0
121
0.0
131
0.0
112
0.0
122
1.0
132
0.0
 79
     0
146
0.0
348
2F
 60
     3
 61
     5
292
     1
282
     1
141
0.0
142
0.0
 63
   250
361
6D
  0
ENDTAB
  0
TABLE
  2
LTYPE
  5
5
330
0
100
AcDbSymbolTable
 70
     1
  0
LTYPE
  5
14
330
5
100
AcDbSymbolTableRecord
100
AcDbLinetypeTableRecord
  2
ByBlock
 70
     0
  3

 72
    65
 73
     0
 40
0.0
  0
LTYPE
  5
15
330
5
100
AcDbSymbolTableRecord
100
AcDbLinetypeTableRecord
  2
ByLayer
 70
     0
  3

 72
    65
 73
     0
 40
0.0
  0
LTYPE
  5
16
330
5
100
AcDbSymbolTableRecord
100
AcDbLinetypeTableRecord
  2
Continuous
 70
     0
  3
Solid line
 72
    65
 73
     0
 40
0.0
  0
ENDTAB
  0
TABLE
  2
LAYER
  5
2
330
0
100
AcDbSymbolTable
 70
     2
  0
LAYER
  5
10
330
2
100
AcDbSymbolTableRecord
100
AcDbLayerTableRecord
  2
0
 70
     0
 62
     7
  6
Continuous
370
    -3
390
F
347
46
  0
LAYER
  5
6F
330
2
100
AcDbSymbolTableRecord
100
AcDbLayerTableRecord
  2
Layer 1
 70
     0
 62
     7
  6
Continuous
370
    -3
390
F
347
46
  0
ENDTAB
  0
TABLE
  2
STYLE
  5
3
330
0
100
AcDbSymbolTable
 70
     1
  0
STYLE
  5
11
330
3
100
AcDbSymbolTableRecord
100
AcDbTextStyleTableRecord
  2
Standard
 70
     0
 40
0.0
 41
1.0
 50
0.0
 71
     0
 42
0.2
  3
txt
  4

  0
ENDTAB
  0
TABLE
  2
VIEW
  5
6
330
0
100
AcDbSymbolTable
 70
     0
  0
ENDTAB
  0
TABLE
  2
UCS
  5
7
330
0
100
AcDbSymbolTable
 70
     0
  0
ENDTAB
  0
TABLE
  2
APPID
  5
9
330
0
100
AcDbSymbolTable
 70
     3
  0
APPID
  5
12
330
9
100
AcDbSymbolTableRecord
100
AcDbRegAppTableRecord
  2
ACAD
 70
     0
  0
APPID
  5
6E
330
9
100
AcDbSymbolTableRecord
100
AcDbRegAppTableRecord
  2
ODA
 70
     0
  0
APPID
  5
C2
330
9
100
AcDbSymbolTableRecord
100
AcDbRegAppTableRecord
  2
ACAD_MLEADERVER
 70
     0
  0
ENDTAB
  0
TABLE
  2
DIMSTYLE
  5
A
330
0
100
AcDbSymbolTable
 70
     1
100
AcDbDimStyleTable
  0
DIMSTYLE
105
27
330
A
100
AcDbSymbolTableRecord
100
AcDbDimStyleTableRecord
  2
Standard
 70
     0
178
     0
340
11
  0
ENDTAB
  0
TABLE
  2
BLOCK_RECORD
  5
1
330
0
100
AcDbSymbolTable
 70
     1
  0
BLOCK_RECORD
  5
1F
330
1
100
AcDbSymbolTableRecord
100
AcDbBlockTableRecord
  2
*Model_Space
340
22
 70
     0
280
     1
281
     0
  0
BLOCK_RECORD
  5
1B
330
1
100
AcDbSymbolTableRecord
100
AcDbBlockTableRecord
  2
*Paper_Space
340
1E
 70
     0
280
     1
281
     0
  0
BLOCK_RECORD
  5
23
330
1
100
AcDbSymbolTableRecord
100
AcDbBlockTableRecord
  2
*Paper_Space0
340
26
 70
     0
280
     1
281
     0
  0
ENDTAB
  0
ENDSEC
  0
SECTION
  2
BLOCKS
  0
BLOCK
  5
20
330
1F
100
AcDbEntity
  8
0
100
AcDbBlockBegin
  2
*Model_Space
 70
     0
 10
0.0
 20
0.0
 30
0.0
  3
*Model_Space
  1

  0
ENDBLK
  5
21
330
1F
100
AcDbEntity
  8
0
100
AcDbBlockEnd
  0
BLOCK
  5
1C
330
1B
100
AcDbEntity
 67
     1
  8
0
100
AcDbBlockBegin
  2
*Paper_Space
 70
     0
 10
0.0
 20
0.0
 30
0.0
  3
*Paper_Space
  1

  0
ENDBLK
  5
1D
330
1B
100
AcDbEntity
 67
     1
  8
0
100
AcDbBlockEnd
  0
BLOCK
  5
24
330
23
100
AcDbEntity
  8
0
100
AcDbBlockBegin
  2
*Paper_Space0
 70
     0
 10
0.0
 20
0.0
 30
0.0
  3
*Paper_Space0
  1

  0
ENDBLK
  5
25
330
23
100
AcDbEntity
  8
0
100
AcDbBlockEnd
  0
ENDSEC
  0
SECTION
  2
ENTITIES
  0
SPLINE
  5
70
330
1F
100
AcDbEntity
  8
Layer 1
 62
   250
370
    20
100
AcDbSpline
210
0.0
220
0.0
230
1.0
 70
    11
 71
     3
 72
   845
 73
   841
 74
     0
 42
0.0000000001
 43
0.0000000001
 40
0.0
 40
0.0
 40
0.0
 40
0.0
 40
0.0035714285714286
 40
0.0035714285714286
 40
0.0035714285714286
 40
0.0071428571428571
 40
0.0071428571428571
 40
0.0071428571428571
 40
0.0107142857142857
 40
0.0107142857142857
 40
0.0107142857142857
 40
0.0142857142857143
 40
0.0142857142857143
 40
0.0142857142857143
 40
0.0178571428571429
 40
0.0178571428571429
 40
0.0178571428571429
 40
0.0214285714285714
 40
0.0214285714285714
 40
0.0214285714285714
 40
0.025
 40
0.025
 40
0.025
 40
0.0285714285714286
 40
0.0285714285714286
 40
0.0285714285714286
 40
0.0321428571428571
 40
0.0321428571428571
 40
0.0321428571428571
 40
0.0357142857142857
 40
0.0357142857142857
 40
0.0357142857142857
 40
0.0392857142857143
 40
0.0392857142857143
 40
0.0392857142857143
 40
0.0428571428571429
 40
0.0428571428571429
 40
0.0428571428571429
 40
0.0464285714285714
 40
0.0464285714285714
 40
0.0464285714285714
 40
0.05
 40
0.05
 40
0.05
 40
0.0535714285714286
 40
0.0535714285714286
 40
0.0535714285714286
 40
0.0571428571428571
 40
0.0571428571428571
 40
0.0571428571428571
 40
0.0607142857142857
 40
0.0607142857142857
 40
0.0607142857142857
 40
0.0642857142857143
 40
0.0642857142857143
 40
0.0642857142857143
 40
0.0678571428571429
 40
0.0678571428571429
 40
0.0678571428571429
 40
0.0714285714285714
 40
0.0714285714285714
 40
0.0714285714285714
 40
0.075
 40
0.075
 40
0.075
 40
0.0785714285714286
 40
0.0785714285714286
 40
0.0785714285714286
 40
0.0821428571428571
 40
0.0821428571428571
 40
0.0821428571428571
 40
0.0857142857142857
 40
0.0857142857142857
 40
0.0857142857142857
 40
0.0892857142857143
 40
0.0892857142857143
 40
0.0892857142857143
 40
0.0928571428571429
 40
0.0928571428571429
 40
0.0928571428571429
 40
0.0964285714285714
 40
0.0964285714285714
 40
0.0964285714285714
 40
0.1
 40
0.1
 40
0.1
 40
0.1035714285714286
 40
0.1035714285714286
 40
0.1035714285714286
 40
0.1071428571428571
 40
0.1071428571428571
 40
0.1071428571428571
 40
0.1107142857142857
 40
0.1107142857142857
 40
0.1107142857142857
 40
0.1142857142857143
 40
0.1142857142857143
 40
0.1142857142857143
 40
0.1178571428571429
 40
0.1178571428571429
 40
0.1178571428571429
 40
0.1214285714285714
 40
0.1214285714285714
 40
0.1214285714285714
 40
0.125
 40
0.125
 40
0.125
 40
0.1285714285714286
 40
0.1285714285714286
 40
0.1285714285714286
 40
0.1321428571428571
 40
0.1321428571428571
 40
0.1321428571428571
 40
0.1357142857142857
 40
0.1357142857142857
 40
0.1357142857142857
 40
0.1392857142857143
 40
0.1392857142857143
 40
0.1392857142857143
 40
0.1428571428571428
 40
0.1428571428571428
 40
0.1428571428571428
 40
0.1464285714285714
 40
0.1464285714285714
 40
0.1464285714285714
 40
0.15
 40
0.15
 40
0.15
 40
0.1535714285714286
 40
0.1535714285714286
 40
0.1535714285714286
 40
0.1571428571428571
 40
0.1571428571428571
 40
0.1571428571428571
 40
0.1607142857142857
 40
0.1607142857142857
 40
0.1607142857142857
 40
0.1642857142857143
 40
0.1642857142857143
 40
0.1642857142857143
 40
0.1678571428571428
 40
0.1678571428571428
 40
0.1678571428571428
 40
0.1714285714285714
 40
0.1714285714285714
 40
0.1714285714285714
 40
0.175
 40
0.175
 40
0.175
 40
0.1785714285714286
 40
0.1785714285714286
 40
0.1785714285714286
 40
0.1821428571428571
 40
0.1821428571428571
 40
0.1821428571428571
 40
0.1857142857142857
 40
0.1857142857142857
 40
0.1857142857142857
 40
0.1892857142857143
 40
0.1892857142857143
 40
0.1892857142857143
 40
0.1928571428571428
 40
0.1928571428571428
 40
0.1928571428571428
 40
0.1964285714285714
 40
0.1964285714285714
 40
0.1964285714285714
 40
0.2
 40
0.2
 40
0.2
 40
0.2035714285714286
 40
0.2035714285714286
 40
0.2035714285714286
 40
0.2071428571428571
 40
0.2071428571428571
 40
0.2071428571428571
 40
0.2107142857142857
 40
0.2107142857142857
 40
0.2107142857142857
 40
0.2142857142857143
 40
0.2142857142857143
 40
0.2142857142857143
 40
0.2178571428571429
 40
0.2178571428571429
 40
0.2178571428571429
 40
0.2214285714285714
 40
0.2214285714285714
 40
0.2214285714285714
 40
0.225
 40
0.225
 40
0.225
 40
0.2285714285714286
 40
0.2285714285714286
 40
0.2285714285714286
 40
0.2321428571428571
 40
0.2321428571428571
 40
0.2321428571428571
 40
0.2357142857142857
 40
0.2357142857142857
 40
0.2357142857142857
 40
0.2392857142857143
 40
0.2392857142857143
 40
0.2392857142857143
 40
0.2428571428571429
 40
0.2428571428571429
 40
0.2428571428571429
 40
0.2464285714285714
 40
0.2464285714285714
 40
0.2464285714285714
 40
0.25
 40
0.25
 40
0.25
 40
0.2535714285714286
 40
0.2535714285714286
 40
0.2535714285714286
 40
0.2571428571428571
 40
0.2571428571428571
 40
0.2571428571428571
 40
0.2607142857142857
 40
0.2607142857142857
 40
0.2607142857142857
 40
0.2642857142857143
 40
0.2642857142857143
 40
0.2642857142857143
 40
0.2678571428571428
 40
0.2678571428571428
 40
0.2678571428571428
 40
0.2714285714285714
 40
0.2714285714285714
 40
0.2714285714285714
 40
0.275
 40
0.275
 40
0.275
 40
0.2785714285714286
 40
0.2785714285714286
 40
0.2785714285714286
 40
0.2821428571428571
 40
0.2821428571428571
 40
0.2821428571428571
 40
0.2857142857142857
 40
0.2857142857142857
 40
0.2857142857142857
 40
0.2892857142857143
 40
0.2892857142857143
 40
0.2892857142857143
 40
0.2928571428571429
 40
0.2928571428571429
 40
0.2928571428571429
 40
0.2964285714285714
 40
0.2964285714285714
 40
0.2964285714285714
 40
0.3
 40
0.3
 40
0.3
 40
0.3035714285714285
 40
0.3035714285714285
 40
0.3035714285714285
 40
0.3071428571428571
 40
0.3071428571428571
 40
0.3071428571428571
 40
0.3107142857142857
 40
0.3107142857142857
 40
0.3107142857142857
 40
0.3142857142857143
 40
0.3142857142857143
 40
0.3142857142857143
 40
0.3178571428571428
 40
0.3178571428571428
 40
0.3178571428571428
 40
0.3214285714285714
 40
0.3214285714285714
 40
0.3214285714285714
 40
0.325
 40
0.325
 40
0.325
 40
0.3285714285714286
 40
0.3285714285714286
 40
0.3285714285714286
 40
0.3321428571428571
 40
0.3321428571428571
 40
0.3321428571428571
 40
0.3357142857142857
 40
0.3357142857142857
 40
0.3357142857142857
 40
0.3392857142857143
 40
0.3392857142857143
 40
0.3392857142857143
 40
0.3428571428571429
 40
0.3428571428571429
 40
0.3428571428571429
 40
0.3464285714285714
 40
0.3464285714285714
 40
0.3464285714285714
 40
0.35
 40
0.35
 40
0.35
 40
0.3535714285714285
 40
0.3535714285714285
 40
0.3535714285714285
 40
0.3571428571428572
 40
0.3571428571428572
 40
0.3571428571428572
 40
0.3607142857142857
 40
0.3607142857142857
 40
0.3607142857142857
 40
0.3642857142857143
 40
0.3642857142857143
 40
0.3642857142857143
 40
0.3678571428571428
 40
0.3678571428571428
 40
0.3678571428571428
 40
0.3714285714285714
 40
0.3714285714285714
 40
0.3714285714285714
 40
0.375
 40
0.375
 40
0.375
 40
0.3785714285714286
 40
0.3785714285714286
 40
0.3785714285714286
 40
0.3821428571428571
 40
0.3821428571428571
 40
0.3821428571428571
 40
0.3857142857142857
 40
0.3857142857142857
 40
0.3857142857142857
 40
0.3892857142857143
 40
0.3892857142857143
 40
0.3892857142857143
 40
0.3928571428571428
 40
0.3928571428571428
 40
0.3928571428571428
 40
0.3964285714285714
 40
0.3964285714285714
 40
0.3964285714285714
 40
0.4
 40
0.4
 40
0.4
 40
0.4035714285714286
 40
0.4035714285714286
 40
0.4035714285714286
 40
0.4071428571428571
 40
0.4071428571428571
 40
0.4071428571428571
 40
0.4107142857142857
 40
0.4107142857142857
 40
0.4107142857142857
 40
0.4142857142857143
 40
0.4142857142857143
 40
0.4142857142857143
 40
0.4178571428571429
 40
0.4178571428571429
 40
0.4178571428571429
 40
0.4214285714285714
 40
0.4214285714285714
 40
0.4214285714285714
 40
0.425
 40
0.425
 40
0.425
 40
0.4285714285714285
 40
0.4285714285714285
 40
0.4285714285714285
 40
0.4321428571428571
 40
0.4321428571428571
 40
0.4321428571428571
 40
0.4357142857142857
 40
0.4357142857142857
 40
0.4357142857142857
 40
0.4392857142857143
 40
0.4392857142857143
 40
0.4392857142857143
 40
0.4428571428571428
 40
0.4428571428571428
 40
0.4428571428571428
 40
0.4464285714285714
 40
0.4464285714285714
 40
0.4464285714285714
 40
0.45
 40
0.45
 40
0.45
 40
0.4535714285714286
 40
0.4535714285714286
 40
0.4535714285714286
 40
0.4571428571428571
 40
0.4571428571428571
 40
0.4571428571428571
 40
0.4607142857142857
 40
0.4607142857142857
 40
0.4607142857142857
 40
0.4642857142857142
 40
0.4642857142857142
 40
0.4642857142857142
 40
0.4678571428571429
 40
0.4678571428571429
 40
0.4678571428571429
 40
0.4714285714285714
 40
0.4714285714285714
 40
0.4714285714285714
 40
0.475
 40
0.475
 40
0.475
 40
0.4785714285714285
 40
0.4785714285714285
 40
0.4785714285714285
 40
0.4821428571428572
 40
0.4821428571428572
 40
0.4821428571428572
 40
0.4857142857142857
 40
0.4857142857142857
 40
0.4857142857142857
 40
0.4892857142857143
 40
0.4892857142857143
 40
0.4892857142857143
 40
0.4928571428571428
 40
0.4928571428571428
 40
0.4928571428571428
 40
0.4964285714285714
 40
0.4964285714285714
 40
0.4964285714285714
 40
0.5
 40
0.5
 40
0.5
 40
0.5035714285714286
 40
0.5035714285714286
 40
0.5035714285714286
 40
0.5071428571428571
 40
0.5071428571428571
 40
0.5071428571428571
 40
0.5107142857142857
 40
0.5107142857142857
 40
0.5107142857142857
 40
0.5142857142857142
 40
0.5142857142857142
 40
0.5142857142857142
 40
0.5178571428571428
 40
0.5178571428571428
 40
0.5178571428571428
 40
0.5214285714285715
 40
0.5214285714285715
 40
0.5214285714285715
 40
0.525
 40
0.525
 40
0.525
 40
0.5285714285714286
 40
0.5285714285714286
 40
0.5285714285714286
 40
0.5321428571428571
 40
0.5321428571428571
 40
0.5321428571428571
 40
0.5357142857142857
 40
0.5357142857142857
 40
0.5357142857142857
 40
0.5392857142857143
 40
0.5392857142857143
 40
0.5392857142857143
 40
0.5428571428571428
 40
0.5428571428571428
 40
0.5428571428571428
 40
0.5464285714285714
 40
0.5464285714285714
 40
0.5464285714285714
 40
0.5499999999999999
 40
0.5499999999999999
 40
0.5499999999999999
 40
0.5535714285714286
 40
0.5535714285714286
 40
0.5535714285714286
 40
0.5571428571428572
 40
0.5571428571428572
 40
0.5571428571428572
 40
0.5607142857142857
 40
0.5607142857142857
 40
0.5607142857142857
 40
0.5642857142857143
 40
0.5642857142857143
 40
0.5642857142857143
 40
0.5678571428571428
 40
0.5678571428571428
 40
0.5678571428571428
 40
0.5714285714285714
 40
0.5714285714285714
 40
0.5714285714285714
 40
0.575
 40
0.575
 40
0.575
 40
0.5785714285714285
 40
0.5785714285714285
 40
0.5785714285714285
 40
0.5821428571428571
 40
0.5821428571428571
 40
0.5821428571428571
 40
0.5857142857142857
 40
0.5857142857142857
 40
0.5857142857142857
 40
0.5892857142857143
 40
0.5892857142857143
 40
0.5892857142857143
 40
0.5928571428571429
 40
0.5928571428571429
 40
0.5928571428571429
 40
0.5964285714285714
 40
0.5964285714285714
 40
0.5964285714285714
 40
0.6
 40
0.6
 40
0.6
 40
0.6035714285714285
 40
0.6035714285714285
 40
0.6035714285714285
 40
0.6071428571428571
 40
0.6071428571428571
 40
0.6071428571428571
 40
0.6107142857142857
 40
0.6107142857142857
 40
0.6107142857142857
 40
0.6142857142857142
 40
0.6142857142857142
 40
0.6142857142857142
 40
0.6178571428571429
 40
0.6178571428571429
 40
0.6178571428571429
 40
0.6214285714285714
 40
0.6214285714285714
 40
0.6214285714285714
 40
0.625
 40
0.625
 40
0.625
 40
0.6285714285714286
 40
0.6285714285714286
 40
0.6285714285714286
 40
0.6321428571428571
 40
0.6321428571428571
 40
0.6321428571428571
 40
0.6357142857142857
 40
0.6357142857142857
 40
0.6357142857142857
 40
0.6392857142857142
 40
0.6392857142857142
 40
0.6392857142857142
 40
0.6428571428571428
 40
0.6428571428571428
 40
0.6428571428571428
 40
0.6464285714285715
 40
0.6464285714285715
 40
0.6464285714285715
 40
0.65
 40
0.65
 40
0.65
 40
0.6535714285714286
 40
0.6535714285714286
 40
0.6535714285714286
 40
0.6571428571428571
 40
0.6571428571428571
 40
0.6571428571428571
 40
0.6607142857142857
 40
0.6607142857142857
 40
0.6607142857142857
 40
0.6642857142857143
 40
0.6642857142857143
 40
0.6642857142857143
 40
0.6678571428571428
 40
0.6678571428571428
 40
0.6678571428571428
 40
0.6714285714285714
 40
0.6714285714285714
 40
0.6714285714285714
 40
0.6749999999999999
 40
0.6749999999999999
 40
0.6749999999999999
 40
0.6785714285714286
 40
0.6785714285714286
 40
0.6785714285714286
 40
0.6821428571428572
 40
0.6821428571428572
 40
0.6821428571428572
 40
0.6857142857142857
 40
0.6857142857142857
 40
0.6857142857142857
 40
0.6892857142857143
 40
0.6892857142857143
 40
0.6892857142857143
 40
0.6928571428571428
 40
0.6928571428571428
 40
0.6928571428571428
 40
0.6964285714285714
 40
0.6964285714285714
 40
0.6964285714285714
 40
0.7
 40
0.7
 40
0.7
 40
0.7035714285714285
 40
0.7035714285714285
 40
0.7035714285714285
 40
0.7071428571428571
 40
0.7071428571428571
 40
0.7071428571428571
 40
0.7107142857142857
 40
0.7107142857142857
 40
0.7107142857142857
 40
0.7142857142857143
 40
0.7142857142857143
 40
0.7142857142857143
 40
0.7178571428571429
 40
0.7178571428571429
 40
0.7178571428571429
 40
0.7214285714285714
 40
0.7214285714285714
 40
0.7214285714285714
 40
0.725
 40
0.725
 40
0.725
 40
0.7285714285714285
 40
0.7285714285714285
 40
0.7285714285714285
 40
0.7321428571428571
 40
0.7321428571428571
 40
0.7321428571428571
 40
0.7357142857142857
 40
0.7357142857142857
 40
0.7357142857142857
 40
0.7392857142857142
 40
0.7392857142857142
 40
0.7392857142857142
 40
0.7428571428571429
 40
0.7428571428571429
 40
0.7428571428571429
 40
0.7464285714285714
 40
0.7464285714285714
 40
0.7464285714285714
 40
0.75
 40
0.75
 40
0.75
 40
0.7535714285714286
 40
0.7535714285714286
 40
0.7535714285714286
 40
0.7571428571428571
 40
0.7571428571428571
 40
0.7571428571428571
 40
0.7607142857142857
 40
0.7607142857142857
 40
0.7607142857142857
 40
0.7642857142857142
 40
0.7642857142857142
 40
0.7642857142857142
 40
0.7678571428571428
 40
0.7678571428571428
 40
0.7678571428571428
 40
0.7714285714285714
 40
0.7714285714285714
 40
0.7714285714285714
 40
0.775
 40
0.775
 40
0.775
 40
0.7785714285714286
 40
0.7785714285714286
 40
0.7785714285714286
 40
0.7821428571428571
 40
0.7821428571428571
 40
0.7821428571428571
 40
0.7857142857142857
 40
0.7857142857142857
 40
0.7857142857142857
 40
0.7892857142857143
 40
0.7892857142857143
 40
0.7892857142857143
 40
0.7928571428571428
 40
0.7928571428571428
 40
0.7928571428571428
 40
0.7964285714285714
 40
0.7964285714285714
 40
0.7964285714285714
 40
0.7999999999999999
 40
0.7999999999999999
 40
0.7999999999999999
 40
0.8035714285714285
 40
0.8035714285714285
 40
0.8035714285714285
 40
0.8071428571428572
 40
0.8071428571428572
 40
0.8071428571428572
 40
0.8107142857142857
 40
0.8107142857142857
 40
0.8107142857142857
 40
0.8142857142857143
 40
0.8142857142857143
 40
0.8142857142857143
 40
0.8178571428571428
 40
0.8178571428571428
 40
0.8178571428571428
 40
0.8214285714285714
 40
0.8214285714285714
 40
0.8214285714285714
 40
0.825
 40
0.825
 40
0.825
 40
0.8285714285714285
 40
0.8285714285714285
 40
0.8285714285714285
 40
0.8321428571428571
 40
0.8321428571428571
 40
0.8321428571428571
 40
0.8357142857142857
 40
0.8357142857142857
 40
0.8357142857142857
 40
0.8392857142857143
 40
0.8392857142857143
 40
0.8392857142857143
 40
0.8428571428571429
 40
0.8428571428571429
 40
0.8428571428571429
 40
0.8464285714285714
 40
0.8464285714285714
 40
0.8464285714285714
 40
0.85
 40
0.85
 40
0.85
 40
0.8535714285714285
 40
0.8535714285714285
 40
0.8535714285714285
 40
0.8571428571428571
 40
0.8571428571428571
 40
0.8571428571428571
 40
0.8607142857142857
 40
0.8607142857142857
 40
0.8607142857142857
 40
0.8642857142857142
 40
0.8642857142857142
 40
0.8642857142857142
 40
0.8678571428571429
 40
0.8678571428571429
 40
0.8678571428571429
 40
0.8714285714285714
 40
0.8714285714285714
 40
0.8714285714285714
 40
0.875
 40
0.875
 40
0.875
 40
0.8785714285714286
 40
0.8785714285714286
 40
0.8785714285714286
 40
0.8821428571428571
 40
0.8821428571428571
 40
0.8821428571428571
 40
0.8857142857142857
 40
0.8857142857142857
 40
0.8857142857142857
 40
0.8892857142857142
 40
0.8892857142857142
 40
0.8892857142857142
 40
0.8928571428571428
 40
0.8928571428571428
 40
0.8928571428571428
 40
0.8964285714285714
 40
0.8964285714285714
 40
0.8964285714285714
 40
0.9
 40
0.9
 40
0.9
 40
0.9035714285714286
 40
0.9035714285714286
 40
0.9035714285714286
 40
0.9071428571428571
 40
0.9071428571428571
 40
0.9071428571428571
 40
0.9107142857142857
 40
0.9107142857142857
 40
0.9107142857142857
 40
0.9142857142857143
 40
0.9142857142857143
 40
0.9142857142857143
 40
0.9178571428571428
 40
0.9178571428571428
 40
0.9178571428571428
 40
0.9214285714285714
 40
0.9214285714285714
 40
0.9214285714285714
 40
0.9249999999999999
 40
0.9249999999999999
 40
0.9249999999999999
 40
0.9285714285714285
 40
0.9285714285714285
 40
0.9285714285714285
 40
0.9321428571428572
 40
0.9321428571428572
 40
0.9321428571428572
 40
0.9357142857142857
 40
0.9357142857142857
 40
0.9357142857142857
 40
0.9392857142857143
 40
0.9392857142857143
 40
0.9392857142857143
 40
0.9428571428571428
 40
0.9428571428571428
 40
0.9428571428571428
 40
0.9464285714285714
 40
0.9464285714285714
 40
0.9464285714285714
 40
0.95
 40
0.95
 40
0.95
 40
0.9535714285714285
 40
0.9535714285714285
 40
0.9535714285714285
 40
0.9571428571428571
 40
0.9571428571428571
 40
0.9571428571428571
 40
0.9607142857142856
 40
0.9607142857142856
 40
0.9607142857142856
 40
0.9642857142857143
 40
0.9642857142857143
 40
0.9642857142857143
 40
0.9678571428571429
 40
0.9678571428571429
 40
0.9678571428571429
 40
0.9714285714285714
 40
0.9714285714285714
 40
0.9714285714285714
 40
0.975
 40
0.975
 40
0.975
 40
0.9785714285714285
 40
0.9785714285714285
 40
0.9785714285714285
 40
0.9821428571428571
 40
0.9821428571428571
 40
0.9821428571428571
 40
0.9857142857142857
 40
0.9857142857142857
 40
0.9857142857142857
 40
0.9892857142857142
 40
0.9892857142857142
 40
0.9892857142857142
 40
0.9928571428571428
 40
0.9928571428571428
 40
0.9928571428571428
 40
0.9964285714285714
 40
0.9964285714285714
 40
0.9964285714285714
 40
1.0
 40
1.0
 40
1.0
 40
1.0
 10
-38.80405
 20
7.46153
 30
0.0
 10
-38.23756
 20
7.29956
 30
0.0
 10
-37.97456
 20
7.33131
 30
0.0
 10
-37.4042
 20
7.30466
 30
0.0
 10
-37.09393
 20
7.29016
 30
0.0
 10
-36.78681
 20
7.28339
 30
0.0
 10
-36.47668
 20
7.27329
 30
0.0
 10
-35.86149
 20
7.25324
 30
0.0
 10
-35.25502
 20
7.22274
 30
0.0
 10
-34.63838
 20
7.19752
 30
0.0
 10
-34.33117
 20
7.18495
 30
0.0
 10
-34.01309
 20
7.19175
 30
0.0
 10
-33.70224
 20
7.19824
 30
0.0
 10
-33.07756
 20
7.21126
 30
0.0
 10
-32.46204
 20
7.17136
 30
0.0
 10
-31.85254
 20
7.13363
 30
0.0
 10
-31.81206
 20
7.13112
 30
0.0
 10
-31.54324
 20
7.12748
 30
0.0
 10
-31.51715
 20
7.11593
 30
0.0
 10
-31.46561
 20
7.09311
 30
0.0
 10
-31.44417
 20
6.95053
 30
0.0
 10
-31.6396
 20
6.94878
 30
0.0
 10
-31.6396
 20
6.94878
 30
0.0
 10
-32.31174
 20
6.90344
 30
0.0
 10
-32.31174
 20
6.90344
 30
0.0
 10
-32.45249
 20
6.88953
 30
0.0
 10
-32.59097
 20
6.85741
 30
0.0
 10
-32.72952
 20
6.83883
 30
0.0
 10
-32.80011
 20
6.82936
 30
0.0
 10
-32.86269
 20
6.81912
 30
0.0
 10
-32.93367
 20
6.80772
 30
0.0
 10
-33.01557
 20
6.79456
 30
0.0
 10
-33.40138
 20
6.65607
 30
0.0
 10
-33.45928
 20
6.61004
 30
0.0
 10
-33.55774
 20
6.53175
 30
0.0
 10
-33.58135
 20
6.38929
 30
0.0
 10
-33.48389
 20
6.28083
 30
0.0
 10
-33.38558
 20
6.17142
 30
0.0
 10
-32.91233
 20
6.07153
 30
0.0
 10
-32.75272
 20
6.05365
 30
0.0
 10
-32.6064
 20
6.03726
 30
0.0
 10
-32.46199
 20
6.02486
 30
0.0
 10
-32.31754
 20
6.01291
 30
0.0
 10
-32.17038
 20
6.00072
 30
0.0
 10
-32.0243
 20
5.98845
 30
0.0
 10
-31.875
 20
5.97773
 30
0.0
 10
-31.72756
 20
5.96716
 30
0.0
 10
-31.58039
 20
5.94773
 30
0.0
 10
-31.43226
 20
5.93872
 30
0.0
 10
-31.29072
 20
5.93011
 30
0.0
 10
-31.13669
 20
5.91572
 30
0.0
 10
-30.99383
 20
5.9015
 30
0.0
 10
-30.84371
 20
5.88655
 30
0.0
 10
-30.69492
 20
5.88319
 30
0.0
 10
-30.54351
 20
5.8692
 30
0.0
 10
-30.24496
 20
5.84164
 30
0.0
 10
-29.94512
 20
5.83228
 30
0.0
 10
-29.64514
 20
5.8095
 30
0.0
 10
-29.64229
 20
5.79171
 30
0.0
 10
-29.69612
 20
5.47475
 30
0.0
 10
-29.70051
 20
5.44675
 30
0.0
 10
-29.70051
 20
5.44675
 30
0.0
 10
-29.75463
 20
5.08104
 30
0.0
 10
-29.75463
 20
5.08104
 30
0.0
 10
-29.78504
 20
4.83872
 30
0.0
 10
-29.83294
 20
4.59104
 30
0.0
 10
-29.86832
 20
4.34774
 30
0.0
 10
-29.90389
 20
4.10318
 30
0.0
 10
-29.94797
 20
3.86304
 30
0.0
 10
-29.98216
 20
3.61465
 30
0.0
 10
-29.99852
 20
3.49578
 30
0.0
 10
-30.02031
 20
3.37164
 30
0.0
 10
-30.04031
 20
3.25292
 30
0.0
 10
-30.06091
 20
3.13065
 30
0.0
 10
-30.07393
 20
3.00474
 30
0.0
 10
-30.09663
 20
2.88325
 30
0.0
 10
-30.11874
 20
2.76491
 30
0.0
 10
-30.13702
 20
2.63944
 30
0.0
 10
-30.15511
 20
2.52171
 30
0.0
 10
-30.15511
 20
2.52171
 30
0.0
 10
-30.23777
 20
1.97065
 30
0.0
 10
-30.23777
 20
1.97065
 30
0.0
 10
-30.26722
 20
1.79542
 30
0.0
 10
-30.30234
 20
1.57893
 30
0.0
 10
-30.31142
 20
1.40481
 30
0.0
 10
-30.31822
 20
1.27436
 30
0.0
 10
-30.33909
 20
1.1516
 30
0.0
 10
-30.34415
 20
1.01819
 30
0.0
 10
-30.3466
 20
0.95354
 30
0.0
 10
-30.35905
 20
0.88954
 30
0.0
 10
-30.36124
 20
0.82219
 30
0.0
 10
-30.36124
 20
0.82219
 30
0.0
 10
-30.39469
 20
0.43507
 30
0.0
 10
-30.39469
 20
0.43507
 30
0.0
 10
-30.41295
 20
0.28929
 30
0.0
 10
-30.44714
 20
-0.04034
 30
0.0
 10
-30.4424
 20
-0.17846
 30
0.0
 10
-30.45884
 20
-0.27308
 30
0.0
 10
-30.49747
 20
-0.85777
 30
0.0
 10
-30.50531
 20
-0.972
 30
0.0
 10
-30.50849
 20
-1.0183
 30
0.0
 10
-30.51125
 20
-1.058
 30
0.0
 10
-30.51474
 20
-1.10468
 30
0.0
 10
-30.51783
 20
-1.14597
 30
0.0
 10
-30.51555
 20
-1.20322
 30
0.0
 10
-30.52291
 20
-1.24186
 30
0.0
 10
-30.54033
 20
-1.33333
 30
0.0
 10
-30.55373
 20
-1.52954
 30
0.0
 10
-30.56061
 20
-1.62883
 30
0.0
 10
-30.56418
 20
-1.6802
 30
0.0
 10
-30.55312
 20
-1.72326
 30
0.0
 10
-30.57687
 20
-1.75946
 30
0.0
 10
-30.65596
 20
-1.88003
 30
0.0
 10
-30.72409
 20
-1.97163
 30
0.0
 10
-30.78999
 20
-2.11763
 30
0.0
 10
-30.84555
 20
-2.24073
 30
0.0
 10
-30.91562
 20
-2.40433
 30
0.0
 10
-30.93292
 20
-2.54118
 30
0.0
 10
-30.95762
 20
-2.73658
 30
0.0
 10
-30.88888
 20
-2.87792
 30
0.0
 10
-30.89846
 20
-3.06796
 30
0.0
 10
-30.9039
 20
-3.17581
 30
0.0
 10
-30.93713
 20
-3.21168
 30
0.0
 10
-30.99216
 20
-3.26125
 30
0.0
 10
-30.99216
 20
-3.26125
 30
0.0
 10
-31.30803
 20
-3.5171
 30
0.0
 10
-31.30803
 20
-3.5171
 30
0.0
 10
-31.38471
 20
-3.57788
 30
0.0
 10
-31.45996
 20
-3.65931
 30
0.0
 10
-31.48904
 20
-3.76197
 30
0.0
 10
-31.49948
 20
-3.79883
 30
0.0
 10
-31.49715
 20
-3.84042
 30
0.0
 10
-31.51021
 20
-3.88061
 30
0.0
 10
-31.53499
 20
-3.95684
 30
0.0
 10
-31.59853
 20
-3.99406
 30
0.0
 10
-31.6145
 20
-4.06268
 30
0.0
 10
-31.66701
 20
-4.28841
 30
0.0
 10
-31.50806
 20
-4.52438
 30
0.0
 10
-31.3337
 20
-4.62289
 30
0.0
 10
-31.26598
 20
-4.66115
 30
0.0
 10
-31.21094
 20
-4.67543
 30
0.0
 10
-31.13023
 20
-4.70517
 30
0.0
 10
-30.98627
 20
-4.75823
 30
0.0
 10
-30.90452
 20
-4.75228
 30
0.0
 10
-30.75384
 20
-4.75364
 30
0.0
 10
-30.70722
 20
-4.75406
 30
0.0
 10
-30.67412
 20
-4.73944
 30
0.0
 10
-30.63045
 20
-4.73304
 30
0.0
 10
-30.466
 20
-4.70892
 30
0.0
 10
-30.31846
 20
-4.64747
 30
0.0
 10
-30.14577
 20
-4.71257
 30
0.0
 10
-30.01351
 20
-4.76243
 30
0.0
 10
-29.93876
 20
-4.88012
 30
0.0
 10
-29.88545
 20
-5.02468
 30
0.0
 10
-29.8463
 20
-5.13083
 30
0.0
 10
-29.86802
 20
-5.15526
 30
0.0
 10
-29.8907
 20
-5.2588
 30
0.0
 10
-29.90855
 20
-5.34031
 30
0.0
 10
-29.97464
 20
-5.48451
 30
0.0
 10
-30.01671
 20
-5.55926
 30
0.0
 10
-30.1011
 20
-5.70923
 30
0.0
 10
-30.20032
 20
-5.85206
 30
0.0
 10
-30.29278
 20
-5.99498
 30
0.0
 10
-30.3262
 20
-6.04663
 30
0.0
 10
-30.35846
 20
-6.12634
 30
0.0
 10
-30.38547
 20
-6.18806
 30
0.0
 10
-30.44311
 20
-6.31984
 30
0.0
 10
-30.52911
 20
-6.4196
 30
0.0
 10
-30.58952
 20
-6.55586
 30
0.0
 10
-30.6211
 20
-6.62709
 30
0.0
 10
-30.65087
 20
-6.67964
 30
0.0
 10
-30.67537
 20
-6.75582
 30
0.0
 10
-30.69707
 20
-6.82332
 30
0.0
 10
-30.72617
 20
-6.89938
 30
0.0
 10
-30.75187
 20
-6.96511
 30
0.0
 10
-30.75187
 20
-6.96511
 30
0.0
 10
-30.78476
 20
-7.07235
 30
0.0
 10
-30.78476
 20
-7.07235
 30
0.0
 10
-30.79668
 20
-7.11776
 30
0.0
 10
-30.83933
 20
-7.22987
 30
0.0
 10
-30.85397
 20
-7.2885
 30
0.0
 10
-30.86231
 20
-7.32194
 30
0.0
 10
-30.87039
 20
-7.37549
 30
0.0
 10
-30.88304
 20
-7.40678
 30
0.0
 10
-30.90343
 20
-7.45721
 30
0.0
 10
-30.91133
 20
-7.54529
 30
0.0
 10
-30.9406
 20
-7.62952
 30
0.0
 10
-30.95851
 20
-7.68105
 30
0.0
 10
-30.95398
 20
-7.70448
 30
0.0
 10
-30.97927
 20
-7.76198
 30
0.0
 10
-30.99048
 20
-7.78749
 30
0.0
 10
-30.99727
 20
-7.82748
 30
0.0
 10
-31.0025
 20
-7.85107
 30
0.0
 10
-31.0025
 20
-7.85107
 30
0.0
 10
-31.05383
 20
-8.08574
 30
0.0
 10
-31.05383
 20
-8.08574
 30
0.0
 10
-31.08173
 20
-8.19799
 30
0.0
 10
-31.10372
 20
-8.31773
 30
0.0
 10
-31.13809
 20
-8.42826
 30
0.0
 10
-31.16389
 20
-8.5112
 30
0.0
 10
-31.26698
 20
-8.88304
 30
0.0
 10
-31.10002
 20
-8.84747
 30
0.0
 10
-31.05644
 20
-8.83819
 30
0.0
 10
-31.0454
 20
-8.80914
 30
0.0
 10
-31.02096
 20
-8.78132
 30
0.0
 10
-31.00516
 20
-8.76333
 30
0.0
 10
-30.99399
 20
-8.76763
 30
0.0
 10
-30.98438
 20
-8.75065
 30
0.0
 10
-30.96722
 20
-8.72033
 30
0.0
 10
-30.99303
 20
-8.73099
 30
0.0
 10
-30.95922
 20
-8.70268
 30
0.0
 10
-30.9283
 20
-8.67679
 30
0.0
 10
-30.92619
 20
-8.64579
 30
0.0
 10
-30.91444
 20
-8.60239
 30
0.0
 10
-30.9035
 20
-8.56201
 30
0.0
 10
-30.88575
 20
-8.53685
 30
0.0
 10
-30.87411
 20
-8.50231
 30
0.0
 10
-30.83018
 20
-8.37205
 30
0.0
 10
-30.81093
 20
-8.32664
 30
0.0
 10
-30.7496
 20
-8.20054
 30
0.0
 10
-30.7496
 20
-8.20054
 30
0.0
 10
-30.6616
 20
-8.00329
 30
0.0
 10
-30.6616
 20
-8.00329
 30
0.0
 10
-30.57208
 20
-7.80966
 30
0.0
 10
-30.48626
 20
-7.60154
 30
0.0
 10
-30.39642
 20
-7.41002
 30
0.0
 10
-30.38221
 20
-7.37972
 30
0.0
 10
-30.36947
 20
-7.34005
 30
0.0
 10
-30.35125
 20
-7.31483
 30
0.0
 10
-30.35125
 20
-7.31483
 30
0.0
 10
-30.20054
 20
-7.0348
 30
0.0
 10
-30.20054
 20
-7.0348
 30
0.0
 10
-30.05899
 20
-6.80646
 30
0.0
 10
-29.65075
 20
-6.25797
 30
0.0
 10
-29.44841
 20
-6.07171
 30
0.0
 10
-29.44841
 20
-6.07171
 30
0.0
 10
-29.21813
 20
-5.87587
 30
0.0
 10
-29.21813
 20
-5.87587
 30
0.0
 10
-29.20004
 20
-5.86177
 30
0.0
 10
-29.19691
 20
-5.85802
 30
0.0
 10
-29.17496
 20
-5.8459
 30
0.0
 10
-29.15774
 20
-5.83639
 30
0.0
 10
-29.14706
 20
-5.82807
 30
0.0
 10
-29.13533
 20
-5.81415
 30
0.0
 10
-29.13905
 20
-5.7347
 30
0.0
 10
-29.29137
 20
-5.47478
 30
0.0
 10
-29.26317
 20
-5.43327
 30
0.0
 10
-29.23875
 20
-5.44388
 30
0.0
 10
-29.20603
 20
-5.51983
 30
0.0
 10
-29.19144
 20
-5.54629
 30
0.0
 10
-29.14324
 20
-5.63375
 30
0.0
 10
-29.00151
 20
-5.8003
 30
0.0
 10
-28.94313
 20
-5.86407
 30
0.0
 10
-28.90197
 20
-5.90904
 30
0.0
 10
-28.75587
 20
-6.05793
 30
0.0
 10
-28.7015
 20
-6.08691
 30
0.0
 10
-28.67625
 20
-6.10037
 30
0.0
 10
-28.66472
 20
-6.10535
 30
0.0
 10
-28.64074
 20
-6.12171
 30
0.0
 10
-28.60267
 20
-6.14767
 30
0.0
 10
-28.55819
 20
-6.16516
 30
0.0
 10
-28.51507
 20
-6.18622
 30
0.0
 10
-28.47252
 20
-6.20701
 30
0.0
 10
-28.4224
 20
-6.21553
 30
0.0
 10
-28.3747
 20
-6.23086
 30
0.0
 10
-28.26771
 20
-6.26522
 30
0.0
 10
-28.14205
 20
-6.29899
 30
0.0
 10
-28.02982
 20
-6.30617
 30
0.0
 10
-28.00276
 20
-6.3079
 30
0.0
 10
-28.00495
 20
-6.31086
 30
0.0
 10
-27.98824
 20
-6.31448
 30
0.0
 10
-27.90405
 20
-6.3327
 30
0.0
 10
-27.81587
 20
-6.32638
 30
0.0
 10
-27.72784
 20
-6.33483
 30
0.0
 10
-27.55769
 20
-6.35116
 30
0.0
 10
-27.16139
 20
-6.35375
 30
0.0
 10
-26.99438
 20
-6.33318
 30
0.0
 10
-26.96521
 20
-6.32959
 30
0.0
 10
-26.9436
 20
-6.32255
 30
0.0
 10
-26.91638
 20
-6.31623
 30
0.0
 10
-26.89228
 20
-6.31063
 30
0.0
 10
-26.862
 20
-6.30889
 30
0.0
 10
-26.83511
 20
-6.30173
 30
0.0
 10
-26.77581
 20
-6.28595
 30
0.0
 10
-26.62978
 20
-6.20544
 30
0.0
 10
-26.57504
 20
-6.187
 30
0.0
 10
-26.5033
 20
-6.16284
 30
0.0
 10
-26.44173
 20
-6.13368
 30
0.0
 10
-26.36958
 20
-6.1121
 30
0.0
 10
-26.34152
 20
-6.10372
 30
0.0
 10
-26.32136
 20
-6.09749
 30
0.0
 10
-26.29773
 20
-6.08881
 30
0.0
 10
-26.22366
 20
-6.0616
 30
0.0
 10
-26.16807
 20
-6.04052
 30
0.0
 10
-26.10308
 20
-5.9978
 30
0.0
 10
-25.98494
 20
-5.92014
 30
0.0
 10
-25.94549
 20
-5.88453
 30
0.0
 10
-25.84633
 20
-5.78401
 30
0.0
 10
-25.84633
 20
-5.78401
 30
0.0
 10
-25.6628
 20
-5.59199
 30
0.0
 10
-25.6628
 20
-5.59199
 30
0.0
 10
-25.5646
 20
-5.49514
 30
0.0
 10
-25.46417
 20
-5.40105
 30
0.0
 10
-25.32373
 20
-5.36499
 30
0.0
 10
-25.32373
 20
-5.36499
 30
0.0
 10
-25.16081
 20
-5.33773
 30
0.0
 10
-25.16081
 20
-5.33773
 30
0.0
 10
-25.16487
 20
-5.31579
 30
0.0
 10
-25.17546
 20
-5.31729
 30
0.0
 10
-25.19754
 20
-5.30793
 30
0.0
 10
-25.19754
 20
-5.30793
 30
0.0
 10
-25.39177
 20
-5.21614
 30
0.0
 10
-25.39177
 20
-5.21614
 30
0.0
 10
-25.41489
 20
-5.20377
 30
0.0
 10
-25.42295
 20
-5.20689
 30
0.0
 10
-25.44646
 20
-5.19848
 30
0.0
 10
-25.47825
 20
-5.18709
 30
0.0
 10
-25.52953
 20
-5.17327
 30
0.0
 10
-25.54266
 20
-5.14598
 30
0.0
 10
-25.41043
 20
-5.13681
 30
0.0
 10
-24.77296
 20
-5.33946
 30
0.0
 10
-24.65241
 20
-5.39538
 30
0.0
 10
-24.2715
 20
-5.57209
 30
0.0
 10
-23.84423
 20
-5.77394
 30
0.0
 10
-23.43825
 20
-5.88507
 30
0.0
 10
-23.36025
 20
-5.90642
 30
0.0
 10
-23.29731
 20
-5.92766
 30
0.0
 10
-23.21285
 20
-5.94545
 30
0.0
 10
-23.13787
 20
-5.96125
 30
0.0
 10
-23.0506
 20
-5.98807
 30
0.0
 10
-22.97908
 20
-5.9972
 30
0.0
 10
-22.66407
 20
-6.03739
 30
0.0
 10
-22.5144
 20
-6.06907
 30
0.0
 10
-22.19518
 20
-6.04409
 30
0.0
 10
-22.10883
 20
-6.03734
 30
0.0
 10
-22.00289
 20
-6.041
 30
0.0
 10
-21.9163
 20
-6.03707
 30
0.0
 10
-21.91252
 20
-5.93952
 30
0.0
 10
-21.88827
 20
-5.93821
 30
0.0
 10
-21.96962
 20
-5.86864
 30
0.0
 10
-22.01574
 20
-5.82921
 30
0.0
 10
-22.11123
 20
-5.81979
 30
0.0
 10
-22.18383
 20
-5.7746
 30
0.0
 10
-22.22826
 20
-5.74694
 30
0.0
 10
-22.27663
 20
-5.71908
 30
0.0
 10
-22.32402
 20
-5.69603
 30
0.0
 10
-22.37595
 20
-5.67077
 30
0.0
 10
-22.43067
 20
-5.65471
 30
0.0
 10
-22.48667
 20
-5.63999
 30
0.0
 10
-22.54386
 20
-5.62495
 30
0.0
 10
-22.60709
 20
-5.61299
 30
0.0
 10
-22.66147
 20
-5.59616
 30
0.0
 10
-22.90369
 20
-5.52114
 30
0.0
 10
-23.14466
 20
-5.43804
 30
0.0
 10
-23.36196
 20
-5.30997
 30
0.0
 10
-23.36196
 20
-5.30997
 30
0.0
 10
-23.43036
 20
-5.26675
 30
0.0
 10
-23.43036
 20
-5.26675
 30
0.0
 10
-23.47663
 20
-5.23822
 30
0.0
 10
-23.5289
 20
-5.21967
 30
0.0
 10
-23.57386
 20
-5.19136
 30
0.0
 10
-23.85931
 20
-5.01164
 30
0.0
 10
-24.33708
 20
-4.78629
 30
0.0
 10
-24.64761
 20
-4.6395
 30
0.0
 10
-24.69774
 20
-4.6158
 30
0.0
 10
-24.80137
 20
-4.57105
 30
0.0
 10
-24.83636
 20
-4.54184
 30
0.0
 10
-24.83757
 20
-4.50363
 30
0.0
 10
-24.82168
 20
-4.48851
 30
0.0
 10
-24.80649
 20
-4.46419
 30
0.0
 10
-24.72139
 20
-4.32799
 30
0.0
 10
-24.68794
 20
-4.26771
 30
0.0
 10
-24.61767
 20
-4.12016
 30
0.0
 10
-24.57875
 20
-4.03843
 30
0.0
 10
-24.51785
 20
-3.88033
 30
0.0
 10
-24.50984
 20
-3.79751
 30
0.0
 10
-24.50348
 20
-3.73165
 30
0.0
 10
-24.48381
 20
-3.68534
 30
0.0
 10
-24.47438
 20
-3.61834
 30
0.0
 10
-24.44774
 20
-3.42913
 30
0.0
 10
-24.45985
 20
-3.19343
 30
0.0
 10
-24.45398
 20
-2.9947
 30
0.0
 10
-24.45291
 20
-2.95836
 30
0.0
 10
-24.44879
 20
-2.93308
 30
0.0
 10
-24.44926
 20
-2.89401
 30
0.0
 10
-24.44969
 20
-2.85873
 30
0.0
 10
-24.45465
 20
-2.82557
 30
0.0
 10
-24.45379
 20
-2.7939
 30
0.0
 10
-24.44832
 20
-2.59099
 30
0.0
 10
-24.44224
 20
-2.38014
 30
0.0
 10
-24.46908
 20
-2.17598
 30
0.0
 10
-24.4762
 20
-2.12181
 30
0.0
 10
-24.48205
 20
-2.03379
 30
0.0
 10
-24.49384
 20
-1.98213
 30
0.0
 10
-24.5011
 20
-1.95031
 30
0.0
 10
-24.50451
 20
-1.92456
 30
0.0
 10
-24.5102
 20
-1.89217
 30
0.0
 10
-24.57096
 20
-1.54677
 30
0.0
 10
-24.65566
 20
-1.31325
 30
0.0
 10
-24.79098
 20
-0.98942
 30
0.0
 10
-24.87123
 20
-0.79736
 30
0.0
 10
-24.98686
 20
-0.6105
 30
0.0
 10
-25.09936
 20
-0.44002
 30
0.0
 10
-25.15504
 20
-0.35564
 30
0.0
 10
-25.20737
 20
-0.26216
 30
0.0
 10
-25.26775
 20
-0.18233
 30
0.0
 10
-25.28469
 20
-0.15992
 30
0.0
 10
-25.29644
 20
-0.14794
 30
0.0
 10
-25.31392
 20
-0.12202
 30
0.0
 10
-25.36155
 20
-0.05141
 30
0.0
 10
-25.59578
 20
0.2378
 30
0.0
 10
-25.65606
 20
0.2927
 30
0.0
 10
-25.7403
 20
0.36943
 30
0.0
 10
-25.90977
 20
0.56381
 30
0.0
 10
-25.97448
 20
0.61887
 30
0.0
 10
-26.0577
 20
0.68969
 30
0.0
 10
-26.0976
 20
0.73821
 30
0.0
 10
-26.19893
 20
0.82045
 30
0.0
 10
-26.27878
 20
0.88526
 30
0.0
 10
-26.35236
 20
0.95517
 30
0.0
 10
-26.43595
 20
1.01496
 30
0.0
 10
-26.47887
 20
1.04566
 30
0.0
 10
-26.51368
 20
1.07467
 30
0.0
 10
-26.55584
 20
1.10815
 30
0.0
 10
-26.60018
 20
1.14335
 30
0.0
 10
-26.62501
 20
1.16423
 30
0.0
 10
-26.68059
 20
1.1964
 30
0.0
 10
-26.71907
 20
1.21867
 30
0.0
 10
-26.74195
 20
1.23812
 30
0.0
 10
-26.7717
 20
1.26767
 30
0.0
 10
-26.78265
 20
1.27853
 30
0.0
 10
-26.78991
 20
1.28239
 30
0.0
 10
-26.80215
 20
1.29341
 30
0.0
 10
-26.91188
 20
1.39222
 30
0.0
 10
-27.01162
 20
1.51184
 30
0.0
 10
-27.11048
 20
1.62387
 30
0.0
 10
-27.23089
 20
1.76032
 30
0.0
 10
-27.27086
 20
1.92461
 30
0.0
 10
-27.26142
 20
2.12254
 30
0.0
 10
-27.2552
 20
2.25297
 30
0.0
 10
-27.24627
 20
2.39854
 30
0.0
 10
-27.23297
 20
2.52565
 30
0.0
 10
-27.21956
 20
2.6537
 30
0.0
 10
-27.21611
 20
2.79211
 30
0.0
 10
-27.20355
 20
2.92192
 30
0.0
 10
-27.20355
 20
2.92192
 30
0.0
 10
-27.17822
 20
3.10904
 30
0.0
 10
-27.17822
 20
3.10904
 30
0.0
 10
-27.17032
 20
3.17563
 30
0.0
 10
-27.16212
 20
3.23612
 30
0.0
 10
-27.15406
 20
3.3036
 30
0.0
 10
-27.14012
 20
3.42032
 30
0.0
 10
-27.12291
 20
3.5669
 30
0.0
 10
-27.0964
 20
3.67684
 30
0.0
 10
-27.05726
 20
3.83919
 30
0.0
 10
-27.00807
 20
4.23835
 30
0.0
 10
-26.98381
 20
4.42257
 30
0.0
 10
-26.96677
 20
4.55197
 30
0.0
 10
-26.96043
 20
4.68428
 30
0.0
 10
-26.94142
 20
4.81236
 30
0.0
 10
-26.92151
 20
4.94652
 30
0.0
 10
-26.92074
 20
5.07787
 30
0.0
 10
-26.93399
 20
5.21943
 30
0.0
 10
-26.94002
 20
5.28389
 30
0.0
 10
-26.94807
 20
5.34357
 30
0.0
 10
-26.96051
 20
5.40488
 30
0.0
 10
-26.97634
 20
5.48283
 30
0.0
 10
-26.98254
 20
5.50504
 30
0.0
 10
-27.02458
 20
5.55904
 30
0.0
 10
-27.11861
 20
5.56427
 30
0.0
 10
-27.16806
 20
5.37112
 30
0.0
 10
-27.19082
 20
5.30687
 30
0.0
 10
-27.25541
 20
5.12464
 30
0.0
 10
-27.28876
 20
5.01587
 30
0.0
 10
-27.33395
 20
4.8294
 30
0.0
 10
-27.34631
 20
4.77841
 30
0.0
 10
-27.36353
 20
4.71893
 30
0.0
 10
-27.3802
 20
4.66773
 30
0.0
 10
-27.39768
 20
4.61405
 30
0.0
 10
-27.40955
 20
4.55853
 30
0.0
 10
-27.42883
 20
4.50895
 30
0.0
 10
-27.48618
 20
4.36141
 30
0.0
 10
-27.53905
 20
4.2046
 30
0.0
 10
-27.60258
 20
4.0605
 30
0.0
 10
-27.6433
 20
3.96813
 30
0.0
 10
-27.6889
 20
3.86408
 30
0.0
 10
-27.72559
 20
3.76871
 30
0.0
 10
-27.76272
 20
3.6722
 30
0.0
 10
-27.81023
 20
3.5746
 30
0.0
 10
-27.84949
 20
3.47779
 30
0.0
 10
-27.88066
 20
3.40094
 30
0.0
 10
-27.94421
 20
3.235
 30
0.0
 10
-28.01926
 20
3.22531
 30
0.0
 10
-28.08736
 20
3.21653
 30
0.0
 10
-28.1038
 20
3.28305
 30
0.0
 10
-28.12061
 20
3.33255
 30
0.0
 10
-28.1381
 20
3.38406
 30
0.0
 10
-28.15545
 20
3.43537
 30
0.0
 10
-28.17263
 20
3.48786
 30
0.0
 10
-28.19006
 20
3.54109
 30
0.0
 10
-28.20788
 20
3.59235
 30
0.0
 10
-28.22561
 20
3.64207
 30
0.0
 10
-28.22561
 20
3.64207
 30
0.0
 10
-28.28232
 20
3.79255
 30
0.0
 10
-28.28232
 20
3.79255
 30
0.0
 10
-28.31959
 20
3.89516
 30
0.0
 10
-28.35054
 20
3.99788
 30
0.0
 10
-28.3894
 20
4.1001
 30
0.0
 10
-28.42671
 20
4.19827
 30
0.0
 10
-28.45767
 20
4.3126
 30
0.0
 10
-28.49476
 20
4.41527
 30
0.0
 10
-28.49476
 20
4.41527
 30
0.0
 10
-28.67745
 20
5.06217
 30
0.0
 10
-28.67745
 20
5.06217
 30
0.0
 10
-28.70503
 20
5.17468
 30
0.0
 10
-28.70783
 20
5.30484
 30
0.0
 10
-28.73836
 20
5.41586
 30
0.0
 10
-28.75244
 20
5.46705
 30
0.0
 10
-28.75428
 20
5.54289
 30
0.0
 10
-28.7625
 20
5.59978
 30
0.0
 10
-28.77094
 20
5.65824
 30
0.0
 10
-28.77698
 20
5.73902
 30
0.0
 10
-28.77691
 20
5.79985
 30
0.0
 10
-28.69386
 20
5.8039
 30
0.0
 10
-28.59555
 20
5.78477
 30
0.0
 10
-28.52292
 20
5.80959
 30
0.0
 10
-28.44906
 20
5.83482
 30
0.0
 10
-28.47019
 20
5.8206
 30
0.0
 10
-28.42466
 20
5.80234
 30
0.0
 10
-28.38712
 20
5.78727
 30
0.0
 10
-27.84489
 20
5.82039
 30
0.0
 10
-27.7877
 20
5.82504
 30
0.0
 10
-27.46302
 20
5.85142
 30
0.0
 10
-27.15681
 20
5.87554
 30
0.0
 10
-26.86188
 20
5.95894
 30
0.0
 10
-26.71795
 20
5.99964
 30
0.0
 10
-26.59336
 20
6.03937
 30
0.0
 10
-26.46298
 20
6.08665
 30
0.0
 10
-26.39795
 20
6.11023
 30
0.0
 10
-26.31113
 20
6.11975
 30
0.0
 10
-26.31972
 20
6.20809
 30
0.0
 10
-26.32558
 20
6.26841
 30
0.0
 10
-26.42364
 20
6.28816
 30
0.0
 10
-26.48936
 20
6.30931
 30
0.0
 10
-26.55345
 20
6.32993
 30
0.0
 10
-26.62768
 20
6.35135
 30
0.0
 10
-26.69524
 20
6.36647
 30
0.0
 10
-26.85603
 20
6.40244
 30
0.0
 10
-26.98429
 20
6.42826
 30
0.0
 10
-27.15004
 20
6.4389
 30
0.0
 10
-27.38995
 20
6.45428
 30
0.0
 10
-27.43179
 20
6.54448
 30
0.0
 10
-27.16675
 20
6.56464
 30
0.0
 10
-26.72427
 20
6.59829
 30
0.0
 10
-26.4156
 20
6.60348
 30
0.0
 10
-25.96741
 20
6.58661
 30
0.0
 10
-25.89395
 20
6.58384
 30
0.0
 10
-25.81147
 20
6.57312
 30
0.0
 10
-25.74265
 20
6.56804
 30
0.0
 10
-25.70338
 20
6.56514
 30
0.0
 10
-25.65999
 20
6.5658
 30
0.0
 10
-25.62
 20
6.56412
 30
0.0
 10
-25.55437
 20
6.56137
 30
0.0
 10
-25.53847
 20
6.55583
 30
0.0
 10
-25.55869
 20
6.62268
 30
0.0
 10
-25.6151
 20
6.64371
 30
0.0
 10
-25.98005
 20
6.70988
 30
0.0
 10
-26.07097
 20
6.72247
 30
0.0
 10
-26.07097
 20
6.72247
 30
0.0
 10
-26.40456
 20
6.75751
 30
0.0
 10
-26.40456
 20
6.75751
 30
0.0
 10
-26.86118
 20
6.79089
 30
0.0
 10
-27.32456
 20
6.75714
 30
0.0
 10
-27.76787
 20
6.67536
 30
0.0
 10
-27.83774
 20
6.66247
 30
0.0
 10
-27.90797
 20
6.6509
 30
0.0
 10
-27.95222
 20
6.6124
 30
0.0
 10
-27.99199
 20
6.5778
 30
0.0
 10
-28.02561
 20
6.50195
 30
0.0
 10
-27.99907
 20
6.42974
 30
0.0
 10
-27.9698
 20
6.35012
 30
0.0
 10
-27.93816
 20
6.34924
 30
0.0
 10
-27.85047
 20
6.33198
 30
0.0
 10
-27.78169
 20
6.31845
 30
0.0
 10
-27.7078
 20
6.30638
 30
0.0
 10
-27.63881
 20
6.29627
 30
0.0
 10
-27.59834
 20
6.29034
 30
0.0
 10
-27.24814
 20
6.24742
 30
0.0
 10
-27.22133
 20
6.21948
 30
0.0
 10
-27.22426
 20
6.18455
 30
0.0
 10
-27.25965
 20
6.18676
 30
0.0
 10
-27.28958
 20
6.17947
 30
0.0
 10
-27.61361
 20
6.10065
 30
0.0
 10
-27.60026
 20
6.10587
 30
0.0
 10
-27.93314
 20
6.06624
 30
0.0
 10
-28.06586
 20
6.05045
 30
0.0
 10
-28.20853
 20
6.05078
 30
0.0
 10
-28.34958
 20
6.0532
 30
0.0
 10
-28.34958
 20
6.0532
 30
0.0
 10
-28.55694
 20
6.06258
 30
0.0
 10
-28.55694
 20
6.06258
 30
0.0
 10
-28.62985
 20
6.06285
 30
0.0
 10
-28.70391
 20
6.06008
 30
0.0
 10
-28.77632
 20
6.06061
 30
0.0
 10
-28.76624
 20
6.18128
 30
0.0
 10
-28.7333
 20
6.30978
 30
0.0
 10
-28.71497
 20
6.43265
 30
0.0
 10
-28.70525
 20
6.49785
 30
0.0
 10
-28.6252
 20
6.69376
 30
0.0
 10
-28.59582
 20
6.7513
 30
0.0
 10
-28.57159
 20
6.79874
 30
0.0
 10
-28.53957
 20
6.83504
 30
0.0
 10
-28.51012
 20
6.87863
 30
0.0
 10
-28.44973
 20
6.96804
 30
0.0
 10
-28.38206
 20
7.038
 30
0.0
 10
-28.29548
 20
7.10154
 30
0.0
 10
-28.16637
 20
7.19632
 30
0.0
 10
-28.02404
 20
7.26615
 30
0.0
 10
-27.86467
 20
7.32117
 30
0.0
 10
-27.75516
 20
7.35899
 30
0.0
 10
-27.65098
 20
7.39587
 30
0.0
 10
-27.54165
 20
7.43537
 30
0.0
 10
-27.54165
 20
7.43537
 30
0.0
 10
-26.74618
 20
7.72687
 30
0.0
 10
-26.74618
 20
7.72687
 30
0.0
 10
-26.55711
 20
7.7975
 30
0.0
 10
-26.47684
 20
7.83282
 30
0.0
 10
-26.29406
 20
7.93046
 30
0.0
 10
-26.20053
 20
7.98042
 30
0.0
 10
-26.10625
 20
8.03433
 30
0.0
 10
-26.02225
 20
8.09024
 30
0.0
 10
-25.99853
 20
8.10602
 30
0.0
 10
-25.97796
 20
8.11862
 30
0.0
 10
-25.95809
 20
8.13228
 30
0.0
 10
-25.93453
 20
8.14847
 30
0.0
 10
-25.91552
 20
8.16292
 30
0.0
 10
-25.8926
 20
8.17912
 30
0.0
 10
-25.68217
 20
8.32784
 30
0.0
 10
-25.47149
 20
8.50096
 30
0.0
 10
-25.3053
 20
8.67918
 30
0.0
 10
-25.23344
 20
8.75623
 30
0.0
 10
-25.16468
 20
8.82032
 30
0.0
 10
-25.09783
 20
8.90891
 30
0.0
 10
-25.09783
 20
8.90891
 30
0.0
 10
-24.9513
 20
9.0874
 30
0.0
 10
-24.9513
 20
9.0874
 30
0.0
 10
-24.92407
 20
9.1219
 30
0.0
 10
-24.8327
 20
9.24396
 30
0.0
 10
-24.81546
 20
9.27677
 30
0.0
 10
-24.76839
 20
9.36638
 30
0.0
 10
-24.72983
 20
9.48642
 30
0.0
 10
-24.68497
 20
9.58342
 30
0.0
 10
-24.65328
 20
9.65192
 30
0.0
 10
-24.6027
 20
9.7502
 30
0.0
 10
-24.59749
 20
9.82323
 30
0.0
 10
-24.5901
 20
9.92683
 30
0.0
 10
-24.56685
 20
10.00984
 30
0.0
 10
-24.58286
 20
10.11943
 30
0.0
 10
-24.59985
 20
10.23569
 30
0.0
 10
-24.6491
 20
10.36056
 30
0.0
 10
-24.71371
 20
10.42701
 30
0.0
 10
-24.80366
 20
10.51952
 30
0.0
 10
-24.9102
 20
10.50243
 30
0.0
 10
-25.03055
 20
10.43935
 30
0.0
 10
-25.11002
 20
10.39771
 30
0.0
 10
-25.24735
 20
10.34713
 30
0.0
 10
-25.33753
 20
10.30885
 30
0.0
 10
-25.4273
 20
10.27074
 30
0.0
 10
-25.50336
 20
10.26151
 30
0.0
 10
-25.60145
 20
10.24745
 30
0.0
 10
-25.63376
 20
10.24282
 30
0.0
 10
-25.66924
 20
10.24187
 30
0.0
 10
-25.70368
 20
10.23817
 30
0.0
 10
-25.73658
 20
10.23463
 30
0.0
 10
-25.75814
 20
10.22776
 30
0.0
 10
-25.7983
 20
10.22468
 30
0.0
 10
-26.0391
 20
10.20625
 30
0.0
 10
-26.28877
 20
10.19094
 30
0.0
 10
-26.52804
 20
10.21544
 30
0.0
 10
-26.66716
 20
10.22968
 30
0.0
 10
-26.78826
 20
10.23089
 30
0.0
 10
-26.92369
 20
10.25733
 30
0.0
 10
-27.15944
 20
10.30335
 30
0.0
 10
-27.41781
 20
10.34693
 30
0.0
 10
-27.64619
 20
10.409
 30
0.0
 10
-27.75979
 20
10.43986
 30
0.0
 10
-27.87451
 20
10.47027
 30
0.0
 10
-27.98593
 20
10.50066
 30
0.0
 10
-27.98593
 20
10.50066
 30
0.0
 10
-28.32105
 20
10.60286
 30
0.0
 10
-28.32105
 20
10.60286
 30
0.0
 10
-28.46648
 20
10.64509
 30
0.0
 10
-28.52877
 20
10.66487
 30
0.0
 10
-28.67135
 20
10.59338
 30
0.0
 10
-28.73309
 20
10.56243
 30
0.0
 10
-28.7492
 20
10.54759
 30
0.0
 10
-28.79176
 20
10.4954
 30
0.0
 10
-28.87735
 20
10.39046
 30
0.0
 10
-28.90028
 20
10.25956
 30
0.0
 10
-28.99366
 20
10.26644
 30
0.0
 10
-29.13325
 20
10.27674
 30
0.0
 10
-29.10669
 20
10.43838
 30
0.0
 10
-29.32757
 20
10.58851
 30
0.0
 10
-29.6296
 20
10.7938
 30
0.0
 10
-30.09851
 20
10.69221
 30
0.0
 10
-30.46821
 20
10.69349
 30
0.0
 10
-30.55438
 20
10.69379
 30
0.0
 10
-31.00698
 20
10.71369
 30
0.0
 10
-31.0906
 20
10.726
 30
0.0
 10
-31.15161
 20
10.73498
 30
0.0
 10
-31.22889
 20
10.73777
 30
0.0
 10
-31.28682
 20
10.7491
 30
0.0
 10
-31.36516
 20
10.76441
 30
0.0
 10
-31.45914
 20
10.76601
 30
0.0
 10
-31.54146
 20
10.77941
 30
0.0
 10
-31.7061
 20
10.80622
 30
0.0
 10
-31.86851
 20
10.84593
 30
0.0
 10
-32.03063
 20
10.8726
 30
0.0
 10
-32.08851
 20
10.88213
 30
0.0
 10
-32.14606
 20
10.90234
 30
0.0
 10
-32.20387
 20
10.91828
 30
0.0
 10
-32.25822
 20
10.93326
 30
0.0
 10
-32.31962
 20
10.94706
 30
0.0
 10
-32.37277
 20
10.96801
 30
0.0
 10
-32.61856
 20
11.06489
 30
0.0
 10
-32.73362
 20
11.08025
 30
0.0
 10
-32.97862
 20
11.23073
 30
0.0
 10
-33.06413
 20
11.28325
 30
0.0
 10
-33.13936
 20
11.36316
 30
0.0
 10
-33.23019
 20
11.41056
 30
0.0
 10
-33.33876
 20
11.46721
 30
0.0
 10
-33.46326
 20
11.49763
 30
0.0
 10
-33.54674
 20
11.39971
 30
0.0
 10
-33.68995
 20
11.23174
 30
0.0
 10
-33.62054
 20
10.86696
 30
0.0
 10
-33.57479
 20
10.66269
 30
0.0
 10
-33.4984
 20
10.32156
 30
0.0
 10
-33.35752
 20
10.03438
 30
0.0
 10
-33.18104
 20
9.75615
 30
0.0
 10
-33.11174
 20
9.6469
 30
0.0
 10
-32.68285
 20
9.12338
 30
0.0
 10
-32.59175
 20
9.03944
 30
0.0
 10
-32.59175
 20
9.03944
 30
0.0
 10
-32.02046
 20
8.5234
 30
0.0
 10
-32.02046
 20
8.5234
 30
0.0
 10
-31.81134
 20
8.37
 30
0.0
 10
-31.60152
 20
8.20943
 30
0.0
 10
-31.38739
 20
8.06349
 30
0.0
 10
-31.12849
 20
7.88705
 30
0.0
 10
-30.87769
 20
7.70302
 30
0.0
 10
-30.60914
 20
7.53574
 30
0.0
 10
-30.52157
 20
7.4812
 30
0.0
 10
-30.43646
 20
7.41954
 30
0.0
 10
-30.3437
 20
7.36398
 30
0.0
 10
-30.29726
 20
7.33616
 30
0.0
 10
-30.25527
 20
7.30513
 30
0.0
 10
-30.20965
 20
7.27952
 30
0.0
 10
-30.18503
 20
7.2657
 30
0.0
 10
-30.09153
 20
7.20959
 30
0.0
 10
-30.07623
 20
7.19476
 30
0.0
 10
-30.14174
 20
7.19579
 30
0.0
 10
-30.26865
 20
7.25722
 30
0.0
 10
-30.34088
 20
7.27705
 30
0.0
 10
-30.87111
 20
7.42259
 30
0.0
 10
-31.04792
 20
7.39926
 30
0.0
 10
-31.57255
 20
7.43478
 30
0.0
 10
-31.68195
 20
7.44219
 30
0.0
 10
-31.79941
 20
7.44488
 30
0.0
 10
-31.90868
 20
7.44732
 30
0.0
 10
-32.01939
 20
7.44979
 30
0.0
 10
-32.12992
 20
7.45914
 30
0.0
 10
-32.23918
 20
7.4627
 30
0.0
 10
-32.35613
 20
7.4665
 30
0.0
 10
-32.47244
 20
7.46412
 30
0.0
 10
-32.58677
 20
7.46999
 30
0.0
 10
-33.03111
 20
7.49281
 30
0.0
 10
-33.50137
 20
7.49116
 30
0.0
 10
-33.95443
 20
7.49337
 30
0.0
 10
-34.41383
 20
7.49562
 30
0.0
 10
-34.87306
 20
7.49825
 30
0.0
 10
-35.32776
 20
7.51588
 30
0.0
 10
-35.43384
 20
7.52
 30
0.0
 10
-35.55133
 20
7.52946
 30
0.0
 10
-35.65808
 20
7.53078
 30
0.0
 10
-35.77314
 20
7.53222
 30
0.0
 10
-35.88716
 20
7.53258
 30
0.0
 10
-35.99988
 20
7.5384
 30
0.0
 10
-36.1088
 20
7.54402
 30
0.0
 10
-36.22473
 20
7.54884
 30
0.0
 10
-36.3365
 20
7.54994
 30
0.0
 10
-36.54038
 20
7.55194
 30
0.0
 10
-36.82408
 20
7.57415
 30
0.0
 10
-37.00921
 20
7.57171
 30
0.0
 10
-37.11051
 20
7.57038
 30
0.0
 10
-37.24442
 20
7.5746
 30
0.0
 10
-37.35043
 20
7.57887
 30
0.0
 10
-37.4467
 20
7.58275
 30
0.0
 10
-37.9797
 20
7.59719
 30
0.0
 10
-38.02265
 20
7.60568
 30
0.0
 10
-38.10865
 20
7.62268
 30
0.0
 10
-38.35493
 20
7.68285
 30
0.0
 10
-38.36321
 20
7.78856
 30
0.0
 10
-38.36906
 20
7.86319
 30
0.0
 10
-38.31825
 20
7.88745
 30
0.0
 10
-38.24557
 20
7.93216
 30
0.0
 10
-38.22743
 20
7.94332
 30
0.0
 10
-38.20537
 20
7.95323
 30
0.0
 10
-38.18644
 20
7.96264
 30
0.0
 10
-38.14331
 20
7.98406
 30
0.0
 10
-38.11212
 20
7.99652
 30
0.0
 10
-38.06561
 20
8.0157
 30
0.0
 10
-37.93585
 20
8.06921
 30
0.0
 10
-37.78169
 20
8.09539
 30
0.0
 10
-37.63917
 20
8.11502
 30
0.0
 10
-37.593
 20
8.12138
 30
0.0
 10
-37.5284
 20
8.13046
 30
0.0
 10
-37.48518
 20
8.1342
 30
0.0
 10
-37.48518
 20
8.1342
 30
0.0
 10
-37.16679
 20
8.16438
 30
0.0
 10
-37.16679
 20
8.16438
 30
0.0
 10
-36.96656
 20
8.19589
 30
0.0
 10
-36.54298
 20
8.16716
 30
0.0
 10
-36.48811
 20
8.1758
 30
0.0
 10
-36.48537
 20
8.21366
 30
0.0
 10
-36.48718
 20
8.21083
 30
0.0
 10
-36.52476
 20
8.2184
 30
0.0
 10
-36.52476
 20
8.2184
 30
0.0
 10
-36.74084
 20
8.24746
 30
0.0
 10
-36.74084
 20
8.24746
 30
0.0
 10
-36.95118
 20
8.26562
 30
0.0
 10
-37.16069
 20
8.26641
 30
0.0
 10
-37.37339
 20
8.26687
 30
0.0
 10
-37.65098
 20
8.26748
 30
0.0
 10
-37.99946
 20
8.21811
 30
0.0
 10
-38.26374
 20
8.18041
 30
0.0
 10
-38.38956
 20
8.16247
 30
0.0
 10
-38.57192
 20
8.08808
 30
0.0
 10
-38.69589
 20
8.04125
 30
0.0
 10
-39.19383
 20
7.85316
 30
0.0
 10
-39.32981
 20
7.57188
 30
0.0
 10
-38.80405
 20
7.46153
 30
0.0
  0
SPLINE
  5
71
330
1F
100
AcDbEntity
  8
Layer 1
 62
   250
370
    20
100
AcDbSpline
210
0.0
220
0.0
230
1.0
 70
    11
 71
     3
 72
    80
 73
    76
 74
     0
 42
0.0000000001
 43
0.0000000001
 40
0.0
 40
0.0
 40
0.0
 40
0.0
 40
0.04
 40
0.04
 40
0.04
 40
0.08
 40
0.08
 40
0.08
 40
0.12
 40
0.12
 40
0.12
 40
0.16
 40
0.16
 40
0.16
 40
0.2
 40
0.2
 40
0.2
 40
0.24
 40
0.24
 40
0.24
 40
0.28
 40
0.28
 40
0.28
 40
0.32
 40
0.32
 40
0.32
 40
0.36
 40
0.36
 40
0.36
 40
0.4
 40
0.4
 40
0.4
 40
0.44
 40
0.44
 40
0.44
 40
0.48
 40
0.48
 40
0.48
 40
0.52
 40
0.52
 40
0.52
 40
0.56
 40
0.56
 40
0.56
 40
0.6
 40
0.6
 40
0.6
 40
0.64
 40
0.64
 40
0.64
 40
0.68
 40
0.68
 40
0.68
 40
0.72
 40
0.72
 40
0.72
 40
0.76
 40
0.76
 40
0.76
 40
0.8
 40
0.8
 40
0.8
 40
0.84
 40
0.84
 40
0.84
 40
0.88
 40
0.88
 40
0.88
 40
0.92
 40
0.92
 40
0.92
 40
0.96
 40
0.96
 40
0.96
 40
1.0
 40
1.0
 40
1.0
 40
1.0
 10
-30.29488
 20
8.98228
 30
0.0
 10
-30.24232
 20
8.92911
 30
0.0
 10
-30.06568
 20
8.69576
 30
0.0
 10
-30.05923
 20
8.64001
 30
0.0
 10
-30.08109
 20
8.64331
 30
0.0
 10
-30.08946
 20
8.65694
 30
0.0
 10
-30.10441
 20
8.66824
 30
0.0
 10
-30.11996
 20
8.67999
 30
0.0
 10
-30.1334
 20
8.68785
 30
0.0
 10
-30.14606
 20
8.69948
 30
0.0
 10
-30.2072
 20
8.75567
 30
0.0
 10
-30.32045
 20
8.84675
 30
0.0
 10
-30.39564
 20
8.8872
 30
0.0
 10
-30.46006
 20
8.92186
 30
0.0
 10
-30.51561
 20
8.95876
 30
0.0
 10
-30.58205
 20
8.9924
 30
0.0
 10
-30.64637
 20
9.02495
 30
0.0
 10
-30.71727
 20
9.04657
 30
0.0
 10
-30.78058
 20
9.07964
 30
0.0
 10
-30.90866
 20
9.14651
 30
0.0
 10
-31.03568
 20
9.20435
 30
0.0
 10
-31.16438
 20
9.27315
 30
0.0
 10
-31.16438
 20
9.27315
 30
0.0
 10
-31.94855
 20
9.79455
 30
0.0
 10
-31.94855
 20
9.79455
 30
0.0
 10
-31.94855
 20
9.79455
 30
0.0
 10
-32.17028
 20
10.00444
 30
0.0
 10
-32.17028
 20
10.00444
 30
0.0
 10
-32.28015
 20
10.11566
 30
0.0
 10
-32.42295
 20
10.25513
 30
0.0
 10
-32.50986
 20
10.38823
 30
0.0
 10
-32.53087
 20
10.42041
 30
0.0
 10
-32.54881
 20
10.44127
 30
0.0
 10
-32.57056
 20
10.47322
 30
0.0
 10
-32.58919
 20
10.50057
 30
0.0
 10
-32.60497
 20
10.53695
 30
0.0
 10
-32.62205
 20
10.56766
 30
0.0
 10
-32.63035
 20
10.58259
 30
0.0
 10
-32.65362
 20
10.6212
 30
0.0
 10
-32.65724
 20
10.63998
 30
0.0
 10
-32.65724
 20
10.63998
 30
0.0
 10
-32.65411
 20
10.66689
 30
0.0
 10
-32.65411
 20
10.66689
 30
0.0
 10
-32.62944
 20
10.6595
 30
0.0
 10
-32.61141
 20
10.62652
 30
0.0
 10
-32.57829
 20
10.59418
 30
0.0
 10
-32.55188
 20
10.56839
 30
0.0
 10
-32.53631
 20
10.54799
 30
0.0
 10
-32.50693
 20
10.51971
 30
0.0
 10
-32.48095
 20
10.49469
 30
0.0
 10
-32.46219
 20
10.47092
 30
0.0
 10
-32.43597
 20
10.44507
 30
0.0
 10
-32.26665
 20
10.27813
 30
0.0
 10
-32.09972
 20
10.10829
 30
0.0
 10
-31.90859
 20
9.96354
 30
0.0
 10
-31.8549
 20
9.92287
 30
0.0
 10
-31.79372
 20
9.88662
 30
0.0
 10
-31.7403
 20
9.84607
 30
0.0
 10
-31.7403
 20
9.84607
 30
0.0
 10
-31.40206
 20
9.60692
 30
0.0
 10
-31.40206
 20
9.60692
 30
0.0
 10
-31.3463
 20
9.56786
 30
0.0
 10
-31.2833
 20
9.53324
 30
0.0
 10
-31.22013
 20
9.49746
 30
0.0
 10
-31.16159
 20
9.4643
 30
0.0
 10
-31.10447
 20
9.42791
 30
0.0
 10
-31.03887
 20
9.39288
 30
0.0
 10
-30.97588
 20
9.35923
 30
0.0
 10
-30.91417
 20
9.32178
 30
0.0
 10
-30.84889
 20
9.29147
 30
0.0
 10
-30.78554
 20
9.26207
 30
0.0
 10
-30.71478
 20
9.227
 30
0.0
 10
-30.65704
 20
9.19777
 30
0.0
 10
-30.50196
 20
9.11927
 30
0.0
 10
-30.4235
 20
9.11239
 30
0.0
 10
-30.29488
 20
8.98228
 30
0.0
  0
SPLINE
  5
72
330
1F
100
AcDbEntity
  8
Layer 1
 62
   250
370
    20
100
AcDbSpline
210
0.0
220
0.0
230
1.0
 70
    11
 71
     3
 72
    50
 73
    46
 74
     0
 42
0.0000000001
 43
0.0000000001
 40
0.0
 40
0.0
 40
0.0
 40
0.0
 40
0.0666666666666667
 40
0.0666666666666667
 40
0.0666666666666667
 40
0.1333333333333333
 40
0.1333333333333333
 40
0.1333333333333333
 40
0.2
 40
0.2
 40
0.2
 40
0.2666666666666667
 40
0.2666666666666667
 40
0.2666666666666667
 40
0.3333333333333333
 40
0.3333333333333333
 40
0.3333333333333333
 40
0.4
 40
0.4
 40
0.4
 40
0.4666666666666667
 40
0.4666666666666667
 40
0.4666666666666667
 40
0.5333333333333333
 40
0.5333333333333333
 40
0.5333333333333333
 40
0.6
 40
0.6
 40
0.6
 40
0.6666666666666666
 40
0.6666666666666666
 40
0.6666666666666666
 40
0.7333333333333333
 40
0.7333333333333333
 40
0.7333333333333333
 40
0.8
 40
0.8
 40
0.8
 40
0.8666666666666667
 40
0.8666666666666667
 40
0.8666666666666667
 40
0.9333333333333333
 40
0.9333333333333333
 40
0.9333333333333333
 40
1.0
 40
1.0
 40
1.0
 40
1.0
 10
-26.67577
 20
8.80124
 30
0.0
 10
-26.72749
 20
8.90969
 30
0.0
 10
-26.6524
 20
8.87531
 30
0.0
 10
-26.46985
 20
8.93609
 30
0.0
 10
-26.34163
 20
8.97878
 30
0.0
 10
-26.19457
 20
9.0334
 30
0.0
 10
-26.07598
 20
9.09133
 30
0.0
 10
-26.07598
 20
9.09133
 30
0.0
 10
-25.84767
 20
9.22717
 30
0.0
 10
-25.84767
 20
9.22717
 30
0.0
 10
-25.8283
 20
9.24068
 30
0.0
 10
-25.81501
 20
9.25381
 30
0.0
 10
-25.79749
 20
9.26679
 30
0.0
 10
-25.77833
 20
9.28097
 30
0.0
 10
-25.76363
 20
9.29261
 30
0.0
 10
-25.7468
 20
9.30574
 30
0.0
 10
-25.64317
 20
9.38658
 30
0.0
 10
-25.61675
 20
9.42683
 30
0.0
 10
-25.55401
 20
9.47725
 30
0.0
 10
-25.51187
 20
9.51111
 30
0.0
 10
-25.41968
 20
9.62026
 30
0.0
 10
-25.3791
 20
9.66666
 30
0.0
 10
-25.3033
 20
9.75333
 30
0.0
 10
-25.0826
 20
10.00344
 30
0.0
 10
-24.97579
 20
9.99211
 30
0.0
 10
-24.98938
 20
9.87188
 30
0.0
 10
-25.13677
 20
9.73804
 30
0.0
 10
-25.1933
 20
9.66582
 30
0.0
 10
-25.24335
 20
9.60189
 30
0.0
 10
-25.39581
 20
9.44222
 30
0.0
 10
-25.4602
 20
9.389
 30
0.0
 10
-25.49055
 20
9.36392
 30
0.0
 10
-25.52675
 20
9.33331
 30
0.0
 10
-25.55492
 20
9.30431
 30
0.0
 10
-25.58074
 20
9.27773
 30
0.0
 10
-25.62588
 20
9.25482
 30
0.0
 10
-25.66033
 20
9.23026
 30
0.0
 10
-25.76318
 20
9.15693
 30
0.0
 10
-26.10878
 20
8.93924
 30
0.0
 10
-26.23908
 20
8.90646
 30
0.0
 10
-26.2904
 20
8.89355
 30
0.0
 10
-26.33435
 20
8.88434
 30
0.0
 10
-26.38619
 20
8.87411
 30
0.0
 10
-26.4806
 20
8.85547
 30
0.0
 10
-26.61555
 20
8.79855
 30
0.0
 10
-26.67577
 20
8.80124
 30
0.0
  0
SPLINE
  5
73
330
1F
100
AcDbEntity
  8
Layer 1
 62
   250
370
    20
100
AcDbSpline
210
0.0
220
0.0
230
1.0
 70
    11
 71
     3
 72
    77
 73
    73
 74
     0
 42
0.0000000001
 43
0.0000000001
 40
0.0
 40
0.0
 40
0.0
 40
0.0
 40
0.0416666666666667
 40
0.0416666666666667
 40
0.0416666666666667
 40
0.0833333333333333
 40
0.0833333333333333
 40
0.0833333333333333
 40
0.125
 40
0.125
 40
0.125
 40
0.1666666666666667
 40
0.1666666666666667
 40
0.1666666666666667
 40
0.2083333333333333
 40
0.2083333333333333
 40
0.2083333333333333
 40
0.25
 40
0.25
 40
0.25
 40
0.2916666666666666
 40
0.2916666666666666
 40
0.2916666666666666
 40
0.3333333333333333
 40
0.3333333333333333
 40
0.3333333333333333
 40
0.375
 40
0.375
 40
0.375
 40
0.4166666666666666
 40
0.4166666666666666
 40
0.4166666666666666
 40
0.4583333333333333
 40
0.4583333333333333
 40
0.4583333333333333
 40
0.5
 40
0.5
 40
0.5
 40
0.5416666666666666
 40
0.5416666666666666
 40
0.5416666666666666
 40
0.5833333333333333
 40
0.5833333333333333
 40
0.5833333333333333
 40
0.625
 40
0.625
 40
0.625
 40
0.6666666666666666
 40
0.6666666666666666
 40
0.6666666666666666
 40
0.7083333333333333
 40
0.7083333333333333
 40
0.7083333333333333
 40
0.75
 40
0.75
 40
0.75
 40
0.7916666666666666
 40
0.7916666666666666
 40
0.7916666666666666
 40
0.8333333333333333
 40
0.8333333333333333
 40
0.8333333333333333
 40
0.875
 40
0.875
 40
0.875
 40
0.9166666666666666
 40
0.9166666666666666
 40
0.9166666666666666
 40
0.9583333333333333
 40
0.9583333333333333
 40
0.9583333333333333
 40
1.0
 40
1.0
 40
1.0
 40
1.0
 10
-25.9624
 20
8.37967
 30
0.0
 10
-25.9595
 20
8.41498
 30
0.0
 10
-25.9458
 20
8.41619
 30
0.0
 10
-25.91641
 20
8.43298
 30
0.0
 10
-25.83084
 20
8.48188
 30
0.0
 10
-25.76898
 20
8.49465
 30
0.0
 10
-25.72716
 20
8.52944
 30
0.0
 10
-25.70647
 20
8.54665
 30
0.0
 10
-25.69737
 20
8.5588
 30
0.0
 10
-25.67765
 20
8.57516
 30
0.0
 10
-25.65868
 20
8.5909
 30
0.0
 10
-25.64554
 20
8.60378
 30
0.0
 10
-25.62865
 20
8.62136
 30
0.0
 10
-25.59835
 20
8.65286
 30
0.0
 10
-25.57155
 20
8.69118
 30
0.0
 10
-25.54201
 20
8.72538
 30
0.0
 10
-25.42699
 20
8.85859
 30
0.0
 10
-25.25848
 20
9.0486
 30
0.0
 10
-25.15535
 20
9.19623
 30
0.0
 10
-25.15535
 20
9.19623
 30
0.0
 10
-25.05135
 20
9.37795
 30
0.0
 10
-25.05135
 20
9.37795
 30
0.0
 10
-25.0266
 20
9.42022
 30
0.0
 10
-25.00743
 20
9.4571
 30
0.0
 10
-24.98406
 20
9.50113
 30
0.0
 10
-24.96146
 20
9.5437
 30
0.0
 10
-24.93628
 20
9.58112
 30
0.0
 10
-24.91502
 20
9.62262
 30
0.0
 10
-24.88597
 20
9.67931
 30
0.0
 10
-24.85282
 20
9.85881
 30
0.0
 10
-24.84509
 20
9.93455
 30
0.0
 10
-24.83942
 20
9.99014
 30
0.0
 10
-24.82953
 20
10.04733
 30
0.0
 10
-24.82566
 20
10.10406
 30
0.0
 10
-24.82305
 20
10.14235
 30
0.0
 10
-24.8263
 20
10.15558
 30
0.0
 10
-24.80716
 20
10.18196
 30
0.0
 10
-24.79301
 20
10.20147
 30
0.0
 10
-24.77521
 20
10.21263
 30
0.0
 10
-24.74053
 20
10.20929
 30
0.0
 10
-24.70241
 20
10.15375
 30
0.0
 10
-24.7116
 20
10.12801
 30
0.0
 10
-24.71263
 20
10.04199
 30
0.0
 10
-24.7132
 20
9.99531
 30
0.0
 10
-24.70858
 20
9.88861
 30
0.0
 10
-24.71733
 20
9.85
 30
0.0
 10
-24.72403
 20
9.82042
 30
0.0
 10
-24.73115
 20
9.79882
 30
0.0
 10
-24.73489
 20
9.76708
 30
0.0
 10
-24.74358
 20
9.69329
 30
0.0
 10
-24.754
 20
9.68155
 30
0.0
 10
-24.77287
 20
9.61533
 30
0.0
 10
-24.79242
 20
9.54677
 30
0.0
 10
-25.05638
 20
9.16996
 30
0.0
 10
-25.11373
 20
9.08734
 30
0.0
 10
-25.16825
 20
9.0088
 30
0.0
 10
-25.1328
 20
9.05139
 30
0.0
 10
-25.1984
 20
8.97576
 30
0.0
 10
-25.23021
 20
8.93909
 30
0.0
 10
-25.25664
 20
8.90562
 30
0.0
 10
-25.2881
 20
8.86935
 30
0.0
 10
-25.32064
 20
8.83184
 30
0.0
 10
-25.49138
 20
8.63974
 30
0.0
 10
-25.52206
 20
8.61571
 30
0.0
 10
-25.52206
 20
8.61571
 30
0.0
 10
-25.63016
 20
8.5332
 30
0.0
 10
-25.63016
 20
8.5332
 30
0.0
 10
-25.73831
 20
8.45402
 30
0.0
 10
-25.6385
 20
8.50635
 30
0.0
 10
-25.81149
 20
8.42298
 30
0.0
 10
-25.8634
 20
8.39796
 30
0.0
 10
-25.89318
 20
8.38291
 30
0.0
 10
-25.9624
 20
8.37967
 30
0.0
  0
SPLINE
  5
74
330
1F
100
AcDbEntity
  8
Layer 1
 62
   250
370
    20
100
AcDbSpline
210
0.0
220
0.0
230
1.0
 70
    11
 71
     3
 72
    41
 73
    37
 74
     0
 42
0.0000000001
 43
0.0000000001
 40
0.0
 40
0.0
 40
0.0
 40
0.0
 40
0.0833333333333333
 40
0.0833333333333333
 40
0.0833333333333333
 40
0.1666666666666667
 40
0.1666666666666667
 40
0.1666666666666667
 40
0.25
 40
0.25
 40
0.25
 40
0.3333333333333333
 40
0.3333333333333333
 40
0.3333333333333333
 40
0.4166666666666666
 40
0.4166666666666666
 40
0.4166666666666666
 40
0.5
 40
0.5
 40
0.5
 40
0.5833333333333333
 40
0.5833333333333333
 40
0.5833333333333333
 40
0.6666666666666666
 40
0.6666666666666666
 40
0.6666666666666666
 40
0.75
 40
0.75
 40
0.75
 40
0.8333333333333333
 40
0.8333333333333333
 40
0.8333333333333333
 40
0.9166666666666666
 40
0.9166666666666666
 40
0.9166666666666666
 40
1.0
 40
1.0
 40
1.0
 40
1.0
 10
-29.69092
 20
7.83929
 30
0.0
 10
-29.67598
 20
7.8671
 30
0.0
 10
-29.647
 20
7.89357
 30
0.0
 10
-29.60578
 20
7.88985
 30
0.0
 10
-29.56704
 20
7.88636
 30
0.0
 10
-29.55822
 20
7.85442
 30
0.0
 10
-29.54509
 20
7.82036
 30
0.0
 10
-29.44328
 20
7.5562
 30
0.0
 10
-29.38786
 20
7.77384
 30
0.0
 10
-29.36119
 20
7.92056
 30
0.0
 10
-29.32171
 20
8.13776
 30
0.0
 10
-29.29229
 20
8.37649
 30
0.0
 10
-29.25761
 20
8.5955
 30
0.0
 10
-29.23318
 20
8.74978
 30
0.0
 10
-29.23213
 20
8.83183
 30
0.0
 10
-29.17023
 20
8.96773
 30
0.0
 10
-29.16128
 20
8.98738
 30
0.0
 10
-29.15939
 20
8.99373
 30
0.0
 10
-29.13986
 20
9.00047
 30
0.0
 10
-29.12877
 20
8.97861
 30
0.0
 10
-29.14123
 20
8.92351
 30
0.0
 10
-29.1444
 20
8.88718
 30
0.0
 10
-29.16728
 20
8.62475
 30
0.0
 10
-29.19657
 20
8.35526
 30
0.0
 10
-29.21622
 20
8.09134
 30
0.0
 10
-29.22249
 20
8.00712
 30
0.0
 10
-29.22621
 20
7.94075
 30
0.0
 10
-29.23924
 20
7.86113
 30
0.0
 10
-29.25765
 20
7.74859
 30
0.0
 10
-29.28802
 20
7.55595
 30
0.0
 10
-29.33088
 20
7.45911
 30
0.0
 10
-29.38785
 20
7.33041
 30
0.0
 10
-29.41496
 20
7.24788
 30
0.0
 10
-29.47535
 20
7.34704
 30
0.0
 10
-29.53486
 20
7.44475
 30
0.0
 10
-29.69508
 20
7.75333
 30
0.0
 10
-29.69092
 20
7.83929
 30
0.0
  0
SPLINE
  5
75
330
1F
100
AcDbEntity
  8
Layer 1
 62
   250
370
    20
100
AcDbSpline
210
0.0
220
0.0
230
1.0
 70
    11
 71
     3
 72
    80
 73
    76
 74
     0
 42
0.0000000001
 43
0.0000000001
 40
0.0
 40
0.0
 40
0.0
 40
0.0
 40
0.04
 40
0.04
 40
0.04
 40
0.08
 40
0.08
 40
0.08
 40
0.12
 40
0.12
 40
0.12
 40
0.16
 40
0.16
 40
0.16
 40
0.2
 40
0.2
 40
0.2
 40
0.24
 40
0.24
 40
0.24
 40
0.28
 40
0.28
 40
0.28
 40
0.32
 40
0.32
 40
0.32
 40
0.36
 40
0.36
 40
0.36
 40
0.4
 40
0.4
 40
0.4
 40
0.44
 40
0.44
 40
0.44
 40
0.48
 40
0.48
 40
0.48
 40
0.52
 40
0.52
 40
0.52
 40
0.56
 40
0.56
 40
0.56
 40
0.6
 40
0.6
 40
0.6
 40
0.64
 40
0.64
 40
0.64
 40
0.68
 40
0.68
 40
0.68
 40
0.72
 40
0.72
 40
0.72
 40
0.76
 40
0.76
 40
0.76
 40
0.8
 40
0.8
 40
0.8
 40
0.84
 40
0.84
 40
0.84
 40
0.88
 40
0.88
 40
0.88
 40
0.92
 40
0.92
 40
0.92
 40
0.96
 40
0.96
 40
0.96
 40
1.0
 40
1.0
 40
1.0
 40
1.0
 10
-29.02863
 20
9.75615
 30
0.0
 10
-29.0287
 20
9.81479
 30
0.0
 10
-29.02603
 20
9.89703
 30
0.0
 10
-28.97172
 20
9.90301
 30
0.0
 10
-28.96111
 20
9.88713
 30
0.0
 10
-28.96018
 20
9.82098
 30
0.0
 10
-28.95879
 20
9.79549
 30
0.0
 10
-28.95675
 20
9.75822
 30
0.0
 10
-28.95404
 20
9.72699
 30
0.0
 10
-28.95267
 20
9.68874
 30
0.0
 10
-28.94488
 20
9.47097
 30
0.0
 10
-28.93122
 20
9.2503
 30
0.0
 10
-28.93108
 20
9.03312
 30
0.0
 10
-28.93082
 20
8.62878
 30
0.0
 10
-28.97648
 20
8.19048
 30
0.0
 10
-28.97722
 20
7.78324
 30
0.0
 10
-28.978
 20
7.35524
 30
0.0
 10
-28.95048
 20
6.92845
 30
0.0
 10
-28.94922
 20
6.50533
 30
0.0
 10
-28.9489
 20
6.39637
 30
0.0
 10
-28.94552
 20
6.2918
 30
0.0
 10
-28.94317
 20
6.18577
 30
0.0
 10
-28.94097
 20
6.08655
 30
0.0
 10
-28.9283
 20
5.9851
 30
0.0
 10
-28.92558
 20
5.88319
 30
0.0
 10
-28.92316
 20
5.79226
 30
0.0
 10
-28.86767
 20
5.26357
 30
0.0
 10
-28.84659
 20
5.15592
 30
0.0
 10
-28.82115
 20
5.02596
 30
0.0
 10
-28.79346
 20
4.88843
 30
0.0
 10
-28.7595
 20
4.76081
 30
0.0
 10
-28.7363
 20
4.67368
 30
0.0
 10
-28.71397
 20
4.59121
 30
0.0
 10
-28.68946
 20
4.50611
 30
0.0
 10
-28.68946
 20
4.50611
 30
0.0
 10
-28.57737
 20
4.136
 30
0.0
 10
-28.57737
 20
4.136
 30
0.0
 10
-28.56688
 20
4.10265
 30
0.0
 10
-28.54995
 20
4.04529
 30
0.0
 10
-28.53652
 20
4.01469
 30
0.0
 10
-28.53652
 20
4.01469
 30
0.0
 10
-28.4535
 20
3.77795
 30
0.0
 10
-28.4535
 20
3.77795
 30
0.0
 10
-28.43881
 20
3.72991
 30
0.0
 10
-28.28364
 20
3.33926
 30
0.0
 10
-28.28689
 20
3.30477
 30
0.0
 10
-28.32696
 20
3.30424
 30
0.0
 10
-28.33999
 20
3.33087
 30
0.0
 10
-28.35932
 20
3.35694
 30
0.0
 10
-28.41051
 20
3.42596
 30
0.0
 10
-28.45558
 20
3.50343
 30
0.0
 10
-28.49841
 20
3.58242
 30
0.0
 10
-28.58732
 20
3.74641
 30
0.0
 10
-28.87453
 20
4.29934
 30
0.0
 10
-28.94127
 20
4.46792
 30
0.0
 10
-29.01535
 20
4.65504
 30
0.0
 10
-29.05762
 20
4.70091
 30
0.0
 10
-29.08101
 20
4.93398
 30
0.0
 10
-29.08101
 20
4.93398
 30
0.0
 10
-29.12185
 20
5.85487
 30
0.0
 10
-29.12185
 20
5.85487
 30
0.0
 10
-29.1154
 20
5.91948
 30
0.0
 10
-29.12319
 20
6.00993
 30
0.0
 10
-29.12394
 20
6.08497
 30
0.0
 10
-29.12852
 20
6.54171
 30
0.0
 10
-29.13145
 20
7.35515
 30
0.0
 10
-29.11325
 20
7.75537
 30
0.0
 10
-29.10811
 20
7.8684
 30
0.0
 10
-29.10978
 20
7.98049
 30
0.0
 10
-29.1025
 20
8.09184
 30
0.0
 10
-29.09514
 20
8.20439
 30
0.0
 10
-29.08939
 20
8.30992
 30
0.0
 10
-29.0837
 20
8.42223
 30
0.0
 10
-29.06126
 20
8.86529
 30
0.0
 10
-29.02804
 20
9.30576
 30
0.0
 10
-29.02863
 20
9.75615
 30
0.0
  0
SPLINE
  5
76
330
1F
100
AcDbEntity
  8
Layer 1
 62
   250
370
    20
100
AcDbSpline
210
0.0
220
0.0
230
1.0
 70
    11
 71
     3
 72
    53
 73
    49
 74
     0
 42
0.0000000001
 43
0.0000000001
 40
0.0
 40
0.0
 40
0.0
 40
0.0
 40
0.0625
 40
0.0625
 40
0.0625
 40
0.125
 40
0.125
 40
0.125
 40
0.1875
 40
0.1875
 40
0.1875
 40
0.25
 40
0.25
 40
0.25
 40
0.3125
 40
0.3125
 40
0.3125
 40
0.375
 40
0.375
 40
0.375
 40
0.4375
 40
0.4375
 40
0.4375
 40
0.5
 40
0.5
 40
0.5
 40
0.5625
 40
0.5625
 40
0.5625
 40
0.625
 40
0.625
 40
0.625
 40
0.6875
 40
0.6875
 40
0.6875
 40
0.75
 40
0.75
 40
0.75
 40
0.8125
 40
0.8125
 40
0.8125
 40
0.875
 40
0.875
 40
0.875
 40
0.9375
 40
0.9375
 40
0.9375
 40
1.0
 40
1.0
 40
1.0
 40
1.0
 10
-30.12415
 20
6.11606
 30
0.0
 10
-30.17095
 20
6.12233
 30
0.0
 10
-30.25041
 20
6.12291
 30
0.0
 10
-30.30003
 20
6.12625
 30
0.0
 10
-30.30003
 20
6.12625
 30
0.0
 10
-30.98392
 20
6.19665
 30
0.0
 10
-30.98392
 20
6.19665
 30
0.0
 10
-31.10217
 20
6.20623
 30
0.0
 10
-31.21081
 20
6.22674
 30
0.0
 10
-31.32557
 20
6.2373
 30
0.0
 10
-31.4593
 20
6.24959
 30
0.0
 10
-31.83584
 20
6.31432
 30
0.0
 10
-31.97859
 20
6.33592
 30
0.0
 10
-32.07472
 20
6.35047
 30
0.0
 10
-32.17093
 20
6.33859
 30
0.0
 10
-32.24746
 20
6.44126
 30
0.0
 10
-32.33273
 20
6.55566
 30
0.0
 10
-32.13305
 20
6.60313
 30
0.0
 10
-32.07666
 20
6.62216
 30
0.0
 10
-31.85369
 20
6.69743
 30
0.0
 10
-31.64425
 20
6.69359
 30
0.0
 10
-31.40961
 20
6.70762
 30
0.0
 10
-31.2372
 20
6.71794
 30
0.0
 10
-30.89735
 20
6.75551
 30
0.0
 10
-30.72959
 20
6.78377
 30
0.0
 10
-30.67479
 20
6.793
 30
0.0
 10
-30.61768
 20
6.8007
 30
0.0
 10
-30.56413
 20
6.80845
 30
0.0
 10
-30.40889
 20
6.8309
 30
0.0
 10
-30.2475
 20
6.87128
 30
0.0
 10
-30.09652
 20
6.90132
 30
0.0
 10
-29.89352
 20
6.94169
 30
0.0
 10
-29.91712
 20
6.9745
 30
0.0
 10
-29.91518
 20
7.095
 30
0.0
 10
-29.86047
 20
7.08138
 30
0.0
 10
-29.67904
 20
6.88615
 30
0.0
 10
-29.64624
 20
6.83372
 30
0.0
 10
-29.63132
 20
6.80986
 30
0.0
 10
-29.5598
 20
6.60966
 30
0.0
 10
-29.55353
 20
6.57779
 30
0.0
 10
-29.54651
 20
6.54217
 30
0.0
 10
-29.55194
 20
6.44697
 30
0.0
 10
-29.55169
 20
6.40444
 30
0.0
 10
-29.5505
 20
6.20528
 30
0.0
 10
-29.56985
 20
6.23464
 30
0.0
 10
-29.58197
 20
6.0844
 30
0.0
 10
-29.58197
 20
6.0844
 30
0.0
 10
-30.12415
 20
6.11606
 30
0.0
 10
-30.12415
 20
6.11606
 30
0.0
  0
SPLINE
  5
77
330
1F
100
AcDbEntity
  8
Layer 1
 62
   250
370
    20
100
AcDbSpline
210
0.0
220
0.0
230
1.0
 70
    11
 71
     3
 72
   104
 73
   100
 74
     0
 42
0.0000000001
 43
0.0000000001
 40
0.0
 40
0.0
 40
0.0
 40
0.0
 40
0.0303030303030303
 40
0.0303030303030303
 40
0.0303030303030303
 40
0.0606060606060606
 40
0.0606060606060606
 40
0.0606060606060606
 40
0.0909090909090909
 40
0.0909090909090909
 40
0.0909090909090909
 40
0.1212121212121212
 40
0.1212121212121212
 40
0.1212121212121212
 40
0.1515151515151515
 40
0.1515151515151515
 40
0.1515151515151515
 40
0.1818181818181818
 40
0.1818181818181818
 40
0.1818181818181818
 40
0.2121212121212121
 40
0.2121212121212121
 40
0.2121212121212121
 40
0.2424242424242424
 40
0.2424242424242424
 40
0.2424242424242424
 40
0.2727272727272727
 40
0.2727272727272727
 40
0.2727272727272727
 40
0.303030303030303
 40
0.303030303030303
 40
0.303030303030303
 40
0.3333333333333334
 40
0.3333333333333334
 40
0.3333333333333334
 40
0.3636363636363636
 40
0.3636363636363636
 40
0.3636363636363636
 40
0.3939393939393939
 40
0.3939393939393939
 40
0.3939393939393939
 40
0.4242424242424243
 40
0.4242424242424243
 40
0.4242424242424243
 40
0.4545454545454546
 40
0.4545454545454546
 40
0.4545454545454546
 40
0.4848484848484849
 40
0.4848484848484849
 40
0.4848484848484849
 40
0.5151515151515151
 40
0.5151515151515151
 40
0.5151515151515151
 40
0.5454545454545454
 40
0.5454545454545454
 40
0.5454545454545454
 40
0.5757575757575758
 40
0.5757575757575758
 40
0.5757575757575758
 40
0.6060606060606061
 40
0.6060606060606061
 40
0.6060606060606061
 40
0.6363636363636364
 40
0.6363636363636364
 40
0.6363636363636364
 40
0.6666666666666667
 40
0.6666666666666667
 40
0.6666666666666667
 40
0.696969696969697
 40
0.696969696969697
 40
0.696969696969697
 40
0.7272727272727273
 40
0.7272727272727273
 40
0.7272727272727273
 40
0.7575757575757576
 40
0.7575757575757576
 40
0.7575757575757576
 40
0.7878787878787878
 40
0.7878787878787878
 40
0.7878787878787878
 40
0.8181818181818182
 40
0.8181818181818182
 40
0.8181818181818182
 40
0.8484848484848485
 40
0.8484848484848485
 40
0.8484848484848485
 40
0.8787878787878788
 40
0.8787878787878788
 40
0.8787878787878788
 40
0.9090909090909092
 40
0.9090909090909092
 40
0.9090909090909092
 40
0.9393939393939394
 40
0.9393939393939394
 40
0.9393939393939394
 40
0.9696969696969697
 40
0.9696969696969697
 40
0.9696969696969697
 40
1.0
 40
1.0
 40
1.0
 40
1.0
 10
-27.24382
 20
1.3881
 30
0.0
 10
-27.28417
 20
1.29907
 30
0.0
 10
-27.52491
 20
1.27513
 30
0.0
 10
-27.64662
 20
1.26184
 30
0.0
 10
-27.64072
 20
1.24021
 30
0.0
 10
-27.55002
 20
1.20695
 30
0.0
 10
-27.54032
 20
1.1551
 30
0.0
 10
-27.57625
 20
1.13294
 30
0.0
 10
-27.61055
 20
1.10227
 30
0.0
 10
-27.65687
 20
1.08202
 30
0.0
 10
-27.68693
 20
1.06888
 30
0.0
 10
-27.71173
 20
1.06488
 30
0.0
 10
-27.73437
 20
1.08432
 30
0.0
 10
-27.75987
 20
1.10621
 30
0.0
 10
-27.75235
 20
1.10968
 30
0.0
 10
-27.79378
 20
1.12547
 30
0.0
 10
-27.84213
 20
1.14392
 30
0.0
 10
-27.91227
 20
1.14945
 30
0.0
 10
-27.96708
 20
1.13398
 30
0.0
 10
-28.0145
 20
1.1206
 30
0.0
 10
-28.07097
 20
1.08798
 30
0.0
 10
-28.11998
 20
1.08957
 30
0.0
 10
-28.11307
 20
1.12865
 30
0.0
 10
-28.10498
 20
1.13692
 30
0.0
 10
-28.08297
 20
1.16064
 30
0.0
 10
-27.98443
 20
1.26691
 30
0.0
 10
-27.86827
 20
1.32395
 30
0.0
 10
-27.72366
 20
1.36198
 30
0.0
 10
-27.6871
 20
1.3716
 30
0.0
 10
-27.55225
 20
1.38773
 30
0.0
 10
-27.53556
 20
1.39931
 30
0.0
 10
-27.54031
 20
1.42324
 30
0.0
 10
-27.56239
 20
1.44021
 30
0.0
 10
-27.58771
 20
1.47761
 30
0.0
 10
-27.6596
 20
1.58377
 30
0.0
 10
-27.63174
 20
1.68248
 30
0.0
 10
-27.61931
 20
1.81851
 30
0.0
 10
-27.60503
 20
1.97481
 30
0.0
 10
-27.57757
 20
2.12954
 30
0.0
 10
-27.56128
 20
2.28522
 30
0.0
 10
-27.54553
 20
2.43582
 30
0.0
 10
-27.51686
 20
2.59756
 30
0.0
 10
-27.49319
 20
2.74549
 30
0.0
 10
-27.44282
 20
3.06016
 30
0.0
 10
-27.37573
 20
3.32268
 30
0.0
 10
-27.31709
 20
3.62359
 30
0.0
 10
-27.28889
 20
3.76829
 30
0.0
 10
-27.25147
 20
3.91436
 30
0.0
 10
-27.22499
 20
4.05874
 30
0.0
 10
-27.19803
 20
4.20574
 30
0.0
 10
-27.16641
 20
4.35103
 30
0.0
 10
-27.1373
 20
4.4969
 30
0.0
 10
-27.1373
 20
4.4969
 30
0.0
 10
-27.05465
 20
4.93059
 30
0.0
 10
-27.05465
 20
4.93059
 30
0.0
 10
-27.04962
 20
4.84561
 30
0.0
 10
-27.10837
 20
4.34436
 30
0.0
 10
-27.12652
 20
4.23948
 30
0.0
 10
-27.13316
 20
4.20114
 30
0.0
 10
-27.14065
 20
4.17392
 30
0.0
 10
-27.14657
 20
4.1318
 30
0.0
 10
-27.14657
 20
4.1318
 30
0.0
 10
-27.17001
 20
3.95822
 30
0.0
 10
-27.17001
 20
3.95822
 30
0.0
 10
-27.17131
 20
3.94918
 30
0.0
 10
-27.17285
 20
3.93877
 30
0.0
 10
-27.17435
 20
3.92954
 30
0.0
 10
-27.17435
 20
3.92954
 30
0.0
 10
-27.199
 20
3.78671
 30
0.0
 10
-27.199
 20
3.78671
 30
0.0
 10
-27.20267
 20
3.7443
 30
0.0
 10
-27.20789
 20
3.70888
 30
0.0
 10
-27.21197
 20
3.66909
 30
0.0
 10
-27.21197
 20
3.66909
 30
0.0
 10
-27.29586
 20
3.09123
 30
0.0
 10
-27.29586
 20
3.09123
 30
0.0
 10
-27.30151
 20
3.05326
 30
0.0
 10
-27.30775
 20
3.02146
 30
0.0
 10
-27.31368
 20
2.98084
 30
0.0
 10
-27.31653
 20
2.96136
 30
0.0
 10
-27.31655
 20
2.94049
 30
0.0
 10
-27.31955
 20
2.91908
 30
0.0
 10
-27.32222
 20
2.89998
 30
0.0
 10
-27.32868
 20
2.88708
 30
0.0
 10
-27.33231
 20
2.86484
 30
0.0
 10
-27.34459
 20
2.78975
 30
0.0
 10
-27.35098
 20
2.70717
 30
0.0
 10
-27.3664
 20
2.63653
 30
0.0
 10
-27.3664
 20
2.63653
 30
0.0
 10
-27.41682
 20
2.29616
 30
0.0
 10
-27.41682
 20
2.29616
 30
0.0
 10
-27.41871
 20
2.25987
 30
0.0
 10
-27.42534
 20
2.20991
 30
0.0
 10
-27.4336
 20
2.17585
 30
0.0
 10
-27.45951
 20
2.06888
 30
0.0
 10
-27.4882
 20
1.7891
 30
0.0
 10
-27.46888
 20
1.69656
 30
0.0
 10
-27.43655
 20
1.54169
 30
0.0
 10
-27.28639
 20
1.47345
 30
0.0
 10
-27.24382
 20
1.3881
 30
0.0
  0
SPLINE
  5
78
330
1F
100
AcDbEntity
  8
Layer 1
 62
   250
370
    20
100
AcDbSpline
210
0.0
220
0.0
230
1.0
 70
    11
 71
     3
 72
   107
 73
   103
 74
     0
 42
0.0000000001
 43
0.0000000001
 40
0.0
 40
0.0
 40
0.0
 40
0.0
 40
0.0294117647058824
 40
0.0294117647058824
 40
0.0294117647058824
 40
0.0588235294117647
 40
0.0588235294117647
 40
0.0588235294117647
 40
0.0882352941176471
 40
0.0882352941176471
 40
0.0882352941176471
 40
0.1176470588235294
 40
0.1176470588235294
 40
0.1176470588235294
 40
0.1470588235294118
 40
0.1470588235294118
 40
0.1470588235294118
 40
0.1764705882352941
 40
0.1764705882352941
 40
0.1764705882352941
 40
0.2058823529411765
 40
0.2058823529411765
 40
0.2058823529411765
 40
0.2352941176470588
 40
0.2352941176470588
 40
0.2352941176470588
 40
0.2647058823529412
 40
0.2647058823529412
 40
0.2647058823529412
 40
0.2941176470588235
 40
0.2941176470588235
 40
0.2941176470588235
 40
0.3235294117647059
 40
0.3235294117647059
 40
0.3235294117647059
 40
0.3529411764705882
 40
0.3529411764705882
 40
0.3529411764705882
 40
0.3823529411764706
 40
0.3823529411764706
 40
0.3823529411764706
 40
0.4117647058823529
 40
0.4117647058823529
 40
0.4117647058823529
 40
0.4411764705882353
 40
0.4411764705882353
 40
0.4411764705882353
 40
0.4705882352941176
 40
0.4705882352941176
 40
0.4705882352941176
 40
0.5
 40
0.5
 40
0.5
 40
0.5294117647058824
 40
0.5294117647058824
 40
0.5294117647058824
 40
0.5588235294117647
 40
0.5588235294117647
 40
0.5588235294117647
 40
0.5882352941176471
 40
0.5882352941176471
 40
0.5882352941176471
 40
0.6176470588235294
 40
0.6176470588235294
 40
0.6176470588235294
 40
0.6470588235294118
 40
0.6470588235294118
 40
0.6470588235294118
 40
0.6764705882352942
 40
0.6764705882352942
 40
0.6764705882352942
 40
0.7058823529411764
 40
0.7058823529411764
 40
0.7058823529411764
 40
0.7352941176470588
 40
0.7352941176470588
 40
0.7352941176470588
 40
0.7647058823529411
 40
0.7647058823529411
 40
0.7647058823529411
 40
0.7941176470588235
 40
0.7941176470588235
 40
0.7941176470588235
 40
0.8235294117647058
 40
0.8235294117647058
 40
0.8235294117647058
 40
0.8529411764705882
 40
0.8529411764705882
 40
0.8529411764705882
 40
0.8823529411764706
 40
0.8823529411764706
 40
0.8823529411764706
 40
0.9117647058823529
 40
0.9117647058823529
 40
0.9117647058823529
 40
0.9411764705882353
 40
0.9411764705882353
 40
0.9411764705882353
 40
0.9705882352941176
 40
0.9705882352941176
 40
0.9705882352941176
 40
1.0
 40
1.0
 40
1.0
 40
1.0
 10
-30.04073
 20
-0.22865
 30
0.0
 10
-30.10371
 20
-0.2519
 30
0.0
 10
-30.12595
 20
-0.1672
 30
0.0
 10
-30.13211
 20
-0.12485
 30
0.0
 10
-30.17172
 20
0.14737
 30
0.0
 10
-30.17707
 20
0.77055
 30
0.0
 10
-30.16176
 20
1.05238
 30
0.0
 10
-30.15998
 20
1.08527
 30
0.0
 10
-30.16213
 20
1.11994
 30
0.0
 10
-30.15985
 20
1.15262
 30
0.0
 10
-30.15899
 20
1.16512
 30
0.0
 10
-30.15691
 20
1.18409
 30
0.0
 10
-30.15104
 20
1.19426
 30
0.0
 10
-30.14087
 20
1.21185
 30
0.0
 10
-30.15146
 20
1.19676
 30
0.0
 10
-30.13604
 20
1.20759
 30
0.0
 10
-30.11828
 20
1.22008
 30
0.0
 10
-30.13021
 20
1.19798
 30
0.0
 10
-30.1218
 20
1.21995
 30
0.0
 10
-30.1218
 20
1.21995
 30
0.0
 10
-30.15055
 20
1.23676
 30
0.0
 10
-30.15055
 20
1.23676
 30
0.0
 10
-30.15462
 20
1.29694
 30
0.0
 10
-30.14701
 20
1.37332
 30
0.0
 10
-30.14251
 20
1.43263
 30
0.0
 10
-30.13782
 20
1.49447
 30
0.0
 10
-30.13863
 20
1.55942
 30
0.0
 10
-30.13042
 20
1.62079
 30
0.0
 10
-30.12204
 20
1.68343
 30
0.0
 10
-30.11903
 20
1.74346
 30
0.0
 10
-30.11272
 20
1.80484
 30
0.0
 10
-30.10609
 20
1.86941
 30
0.0
 10
-30.09809
 20
1.92733
 30
0.0
 10
-30.09372
 20
1.99342
 30
0.0
 10
-30.08097
 20
2.18616
 30
0.0
 10
-29.98317
 20
2.87237
 30
0.0
 10
-29.94368
 20
3.07096
 30
0.0
 10
-29.92096
 20
3.18517
 30
0.0
 10
-29.90577
 20
3.30717
 30
0.0
 10
-29.88388
 20
3.41965
 30
0.0
 10
-29.86266
 20
3.52873
 30
0.0
 10
-29.79499
 20
3.91848
 30
0.0
 10
-29.76755
 20
4.01636
 30
0.0
 10
-29.75901
 20
4.04684
 30
0.0
 10
-29.76126
 20
4.08067
 30
0.0
 10
-29.73403
 20
4.08967
 30
0.0
 10
-29.73136
 20
4.01529
 30
0.0
 10
-29.7865
 20
3.70523
 30
0.0
 10
-29.79844
 20
3.59549
 30
0.0
 10
-29.81701
 20
3.42469
 30
0.0
 10
-29.83873
 20
3.25814
 30
0.0
 10
-29.85705
 20
3.08677
 30
0.0
 10
-29.88972
 20
2.78122
 30
0.0
 10
-29.92854
 20
2.33713
 30
0.0
 10
-29.92879
 20
2.03265
 30
0.0
 10
-29.92892
 20
1.86295
 30
0.0
 10
-29.9056
 20
1.32889
 30
0.0
 10
-29.79983
 20
1.182
 30
0.0
 10
-29.72339
 20
1.07585
 30
0.0
 10
-29.71122
 20
1.19453
 30
0.0
 10
-29.63704
 20
1.36351
 30
0.0
 10
-29.62185
 20
1.39812
 30
0.0
 10
-29.60935
 20
1.42867
 30
0.0
 10
-29.59545
 20
1.46204
 30
0.0
 10
-29.57993
 20
1.4993
 30
0.0
 10
-29.56373
 20
1.52425
 30
0.0
 10
-29.54648
 20
1.55892
 30
0.0
 10
-29.45981
 20
1.7331
 30
0.0
 10
-29.43993
 20
1.75816
 30
0.0
 10
-29.33413
 20
1.91287
 30
0.0
 10
-29.33413
 20
1.91287
 30
0.0
 10
-29.09479
 20
2.23413
 30
0.0
 10
-29.09479
 20
2.23413
 30
0.0
 10
-29.07069
 20
2.26421
 30
0.0
 10
-28.99432
 20
2.39949
 30
0.0
 10
-28.94168
 20
2.33148
 30
0.0
 10
-28.91542
 20
2.29755
 30
0.0
 10
-28.94734
 20
2.25542
 30
0.0
 10
-28.96301
 20
2.23147
 30
0.0
 10
-28.98291
 20
2.20107
 30
0.0
 10
-28.99773
 20
2.1709
 30
0.0
 10
-29.01671
 20
2.13953
 30
0.0
 10
-29.20888
 20
1.82197
 30
0.0
 10
-29.39679
 20
1.60686
 30
0.0
 10
-29.54831
 20
1.25897
 30
0.0
 10
-29.57546
 20
1.19662
 30
0.0
 10
-29.60318
 20
1.12423
 30
0.0
 10
-29.63191
 20
1.06233
 30
0.0
 10
-29.65949
 20
1.00293
 30
0.0
 10
-29.68786
 20
0.92683
 30
0.0
 10
-29.70808
 20
0.85817
 30
0.0
 10
-29.72966
 20
0.78491
 30
0.0
 10
-29.75579
 20
0.71482
 30
0.0
 10
-29.77581
 20
0.64055
 30
0.0
 10
-29.77581
 20
0.64055
 30
0.0
 10
-29.96111
 20
-0.02061
 30
0.0
 10
-29.96111
 20
-0.02061
 30
0.0
 10
-29.98816
 20
-0.12222
 30
0.0
 10
-29.97313
 20
-0.08918
 30
0.0
 10
-30.01252
 20
-0.18261
 30
0.0
 10
-30.02016
 20
-0.20073
 30
0.0
 10
-30.02359
 20
-0.21844
 30
0.0
 10
-30.04073
 20
-0.22865
 30
0.0
  0
SPLINE
  5
79
330
1F
100
AcDbEntity
  8
Layer 1
 62
   250
370
    20
100
AcDbSpline
210
0.0
220
0.0
230
1.0
 70
    11
 71
     3
 72
   317
 73
   313
 74
     0
 42
0.0000000001
 43
0.0000000001
 40
0.0
 40
0.0
 40
0.0
 40
0.0
 40
0.0096153846153846
 40
0.0096153846153846
 40
0.0096153846153846
 40
0.0192307692307692
 40
0.0192307692307692
 40
0.0192307692307692
 40
0.0288461538461538
 40
0.0288461538461538
 40
0.0288461538461538
 40
0.0384615384615385
 40
0.0384615384615385
 40
0.0384615384615385
 40
0.0480769230769231
 40
0.0480769230769231
 40
0.0480769230769231
 40
0.0576923076923077
 40
0.0576923076923077
 40
0.0576923076923077
 40
0.0673076923076923
 40
0.0673076923076923
 40
0.0673076923076923
 40
0.0769230769230769
 40
0.0769230769230769
 40
0.0769230769230769
 40
0.0865384615384615
 40
0.0865384615384615
 40
0.0865384615384615
 40
0.0961538461538462
 40
0.0961538461538462
 40
0.0961538461538462
 40
0.1057692307692308
 40
0.1057692307692308
 40
0.1057692307692308
 40
0.1153846153846154
 40
0.1153846153846154
 40
0.1153846153846154
 40
0.125
 40
0.125
 40
0.125
 40
0.1346153846153846
 40
0.1346153846153846
 40
0.1346153846153846
 40
0.1442307692307692
 40
0.1442307692307692
 40
0.1442307692307692
 40
0.1538461538461539
 40
0.1538461538461539
 40
0.1538461538461539
 40
0.1634615384615385
 40
0.1634615384615385
 40
0.1634615384615385
 40
0.1730769230769231
 40
0.1730769230769231
 40
0.1730769230769231
 40
0.1826923076923077
 40
0.1826923076923077
 40
0.1826923076923077
 40
0.1923076923076923
 40
0.1923076923076923
 40
0.1923076923076923
 40
0.2019230769230769
 40
0.2019230769230769
 40
0.2019230769230769
 40
0.2115384615384616
 40
0.2115384615384616
 40
0.2115384615384616
 40
0.2211538461538462
 40
0.2211538461538462
 40
0.2211538461538462
 40
0.2307692307692308
 40
0.2307692307692308
 40
0.2307692307692308
 40
0.2403846153846154
 40
0.2403846153846154
 40
0.2403846153846154
 40
0.25
 40
0.25
 40
0.25
 40
0.2596153846153846
 40
0.2596153846153846
 40
0.2596153846153846
 40
0.2692307692307693
 40
0.2692307692307693
 40
0.2692307692307693
 40
0.2788461538461539
 40
0.2788461538461539
 40
0.2788461538461539
 40
0.2884615384615385
 40
0.2884615384615385
 40
0.2884615384615385
 40
0.2980769230769231
 40
0.2980769230769231
 40
0.2980769230769231
 40
0.3076923076923077
 40
0.3076923076923077
 40
0.3076923076923077
 40
0.3173076923076923
 40
0.3173076923076923
 40
0.3173076923076923
 40
0.3269230769230769
 40
0.3269230769230769
 40
0.3269230769230769
 40
0.3365384615384616
 40
0.3365384615384616
 40
0.3365384615384616
 40
0.3461538461538461
 40
0.3461538461538461
 40
0.3461538461538461
 40
0.3557692307692308
 40
0.3557692307692308
 40
0.3557692307692308
 40
0.3653846153846154
 40
0.3653846153846154
 40
0.3653846153846154
 40
0.375
 40
0.375
 40
0.375
 40
0.3846153846153846
 40
0.3846153846153846
 40
0.3846153846153846
 40
0.3942307692307693
 40
0.3942307692307693
 40
0.3942307692307693
 40
0.4038461538461539
 40
0.4038461538461539
 40
0.4038461538461539
 40
0.4134615384615385
 40
0.4134615384615385
 40
0.4134615384615385
 40
0.4230769230769231
 40
0.4230769230769231
 40
0.4230769230769231
 40
0.4326923076923077
 40
0.4326923076923077
 40
0.4326923076923077
 40
0.4423076923076923
 40
0.4423076923076923
 40
0.4423076923076923
 40
0.4519230769230769
 40
0.4519230769230769
 40
0.4519230769230769
 40
0.4615384615384616
 40
0.4615384615384616
 40
0.4615384615384616
 40
0.4711538461538462
 40
0.4711538461538462
 40
0.4711538461538462
 40
0.4807692307692308
 40
0.4807692307692308
 40
0.4807692307692308
 40
0.4903846153846154
 40
0.4903846153846154
 40
0.4903846153846154
 40
0.5
 40
0.5
 40
0.5
 40
0.5096153846153847
 40
0.5096153846153847
 40
0.5096153846153847
 40
0.5192307692307693
 40
0.5192307692307693
 40
0.5192307692307693
 40
0.5288461538461539
 40
0.5288461538461539
 40
0.5288461538461539
 40
0.5384615384615385
 40
0.5384615384615385
 40
0.5384615384615385
 40
0.5480769230769231
 40
0.5480769230769231
 40
0.5480769230769231
 40
0.5576923076923077
 40
0.5576923076923077
 40
0.5576923076923077
 40
0.5673076923076923
 40
0.5673076923076923
 40
0.5673076923076923
 40
0.576923076923077
 40
0.576923076923077
 40
0.576923076923077
 40
0.5865384615384616
 40
0.5865384615384616
 40
0.5865384615384616
 40
0.5961538461538461
 40
0.5961538461538461
 40
0.5961538461538461
 40
0.6057692307692308
 40
0.6057692307692308
 40
0.6057692307692308
 40
0.6153846153846154
 40
0.6153846153846154
 40
0.6153846153846154
 40
0.625
 40
0.625
 40
0.625
 40
0.6346153846153847
 40
0.6346153846153847
 40
0.6346153846153847
 40
0.6442307692307693
 40
0.6442307692307693
 40
0.6442307692307693
 40
0.6538461538461539
 40
0.6538461538461539
 40
0.6538461538461539
 40
0.6634615384615385
 40
0.6634615384615385
 40
0.6634615384615385
 40
0.6730769230769231
 40
0.6730769230769231
 40
0.6730769230769231
 40
0.6826923076923077
 40
0.6826923076923077
 40
0.6826923076923077
 40
0.6923076923076923
 40
0.6923076923076923
 40
0.6923076923076923
 40
0.701923076923077
 40
0.701923076923077
 40
0.701923076923077
 40
0.7115384615384616
 40
0.7115384615384616
 40
0.7115384615384616
 40
0.7211538461538461
 40
0.7211538461538461
 40
0.7211538461538461
 40
0.7307692307692308
 40
0.7307692307692308
 40
0.7307692307692308
 40
0.7403846153846154
 40
0.7403846153846154
 40
0.7403846153846154
 40
0.75
 40
0.75
 40
0.75
 40
0.7596153846153847
 40
0.7596153846153847
 40
0.7596153846153847
 40
0.7692307692307693
 40
0.7692307692307693
 40
0.7692307692307693
 40
0.7788461538461539
 40
0.7788461538461539
 40
0.7788461538461539
 40
0.7884615384615385
 40
0.7884615384615385
 40
0.7884615384615385
 40
0.7980769230769231
 40
0.7980769230769231
 40
0.7980769230769231
 40
0.8076923076923077
 40
0.8076923076923077
 40
0.8076923076923077
 40
0.8173076923076924
 40
0.8173076923076924
 40
0.8173076923076924
 40
0.826923076923077
 40
0.826923076923077
 40
0.826923076923077
 40
0.8365384615384616
 40
0.8365384615384616
 40
0.8365384615384616
 40
0.8461538461538463
 40
0.8461538461538463
 40
0.8461538461538463
 40
0.8557692307692308
 40
0.8557692307692308
 40
0.8557692307692308
 40
0.8653846153846154
 40
0.8653846153846154
 40
0.8653846153846154
 40
0.875
 40
0.875
 40
0.875
 40
0.8846153846153847
 40
0.8846153846153847
 40
0.8846153846153847
 40
0.8942307692307693
 40
0.8942307692307693
 40
0.8942307692307693
 40
0.9038461538461539
 40
0.9038461538461539
 40
0.9038461538461539
 40
0.9134615384615385
 40
0.9134615384615385
 40
0.9134615384615385
 40
0.9230769230769231
 40
0.9230769230769231
 40
0.9230769230769231
 40
0.9326923076923077
 40
0.9326923076923077
 40
0.9326923076923077
 40
0.9423076923076924
 40
0.9423076923076924
 40
0.9423076923076924
 40
0.951923076923077
 40
0.951923076923077
 40
0.951923076923077
 40
0.9615384615384616
 40
0.9615384615384616
 40
0.9615384615384616
 40
0.9711538461538463
 40
0.9711538461538463
 40
0.9711538461538463
 40
0.9807692307692308
 40
0.9807692307692308
 40
0.9807692307692308
 40
0.9903846153846154
 40
0.9903846153846154
 40
0.9903846153846154
 40
1.0
 40
1.0
 40
1.0
 40
1.0
 10
-29.59957
 20
-0.06407
 30
0.0
 10
-29.56407
 20
-0.04206
 30
0.0
 10
-29.55517
 20
-0.00436
 30
0.0
 10
-29.53446
 20
0.03936
 30
0.0
 10
-29.49517
 20
0.12232
 30
0.0
 10
-29.39848
 20
0.27626
 30
0.0
 10
-29.3494
 20
0.35874
 30
0.0
 10
-29.32692
 20
0.39652
 30
0.0
 10
-29.30597
 20
0.42456
 30
0.0
 10
-29.28223
 20
0.45985
 30
0.0
 10
-29.25922
 20
0.49405
 30
0.0
 10
-29.23902
 20
0.52956
 30
0.0
 10
-29.21539
 20
0.56114
 30
0.0
 10
-29.11718
 20
0.69239
 30
0.0
 10
-29.02288
 20
0.81755
 30
0.0
 10
-28.9108
 20
0.93488
 30
0.0
 10
-28.86192
 20
0.98605
 30
0.0
 10
-28.70224
 20
1.12675
 30
0.0
 10
-28.63437
 20
1.16862
 30
0.0
 10
-28.54895
 20
1.22131
 30
0.0
 10
-28.38365
 20
1.3412
 30
0.0
 10
-28.28084
 20
1.31609
 30
0.0
 10
-28.27872
 20
1.26041
 30
0.0
 10
-28.36554
 20
1.23636
 30
0.0
 10
-28.40342
 20
1.21181
 30
0.0
 10
-28.4414
 20
1.18721
 30
0.0
 10
-28.49302
 20
1.13878
 30
0.0
 10
-28.52979
 20
1.10851
 30
0.0
 10
-28.59235
 20
1.05701
 30
0.0
 10
-28.64287
 20
0.99126
 30
0.0
 10
-28.69346
 20
0.93043
 30
0.0
 10
-28.71317
 20
0.90672
 30
0.0
 10
-28.72895
 20
0.89166
 30
0.0
 10
-28.7486
 20
0.8681
 30
0.0
 10
-28.8171
 20
0.78597
 30
0.0
 10
-28.87789
 20
0.69335
 30
0.0
 10
-28.94655
 20
0.61187
 30
0.0
 10
-28.98219
 20
0.56958
 30
0.0
 10
-29.0164
 20
0.52961
 30
0.0
 10
-29.05069
 20
0.48636
 30
0.0
 10
-29.07204
 20
0.45942
 30
0.0
 10
-29.1345
 20
0.37537
 30
0.0
 10
-29.14579
 20
0.34769
 30
0.0
 10
-29.06596
 20
0.37787
 30
0.0
 10
-28.69814
 20
0.71879
 30
0.0
 10
-28.6221
 20
0.78625
 30
0.0
 10
-28.56928
 20
0.83311
 30
0.0
 10
-28.48566
 20
0.88648
 30
0.0
 10
-28.4111
 20
0.90081
 30
0.0
 10
-28.41798
 20
0.87072
 30
0.0
 10
-28.49839
 20
0.79679
 30
0.0
 10
-28.52201
 20
0.7704
 30
0.0
 10
-28.54249
 20
0.74753
 30
0.0
 10
-28.60246
 20
0.6482
 30
0.0
 10
-28.60753
 20
0.60829
 30
0.0
 10
-28.53294
 20
0.62051
 30
0.0
 10
-28.39699
 20
0.78867
 30
0.0
 10
-28.26244
 20
0.80225
 30
0.0
 10
-28.26897
 20
0.77138
 30
0.0
 10
-28.33975
 20
0.7188
 30
0.0
 10
-28.37045
 20
0.68056
 30
0.0
 10
-28.46514
 20
0.56255
 30
0.0
 10
-28.48253
 20
0.52532
 30
0.0
 10
-28.51403
 20
0.37075
 30
0.0
 10
-28.52077
 20
0.33767
 30
0.0
 10
-28.52353
 20
0.30518
 30
0.0
 10
-28.52912
 20
0.27256
 30
0.0
 10
-28.53378
 20
0.24536
 30
0.0
 10
-28.57144
 20
0.16248
 30
0.0
 10
-28.51231
 20
0.16768
 30
0.0
 10
-28.48458
 20
0.17011
 30
0.0
 10
-28.46013
 20
0.20612
 30
0.0
 10
-28.44222
 20
0.22525
 30
0.0
 10
-28.44222
 20
0.22525
 30
0.0
 10
-28.17945
 20
0.47817
 30
0.0
 10
-28.17945
 20
0.47817
 30
0.0
 10
-28.12501
 20
0.52887
 30
0.0
 10
-28.05672
 20
0.58083
 30
0.0
 10
-27.98147
 20
0.62234
 30
0.0
 10
-27.94143
 20
0.64443
 30
0.0
 10
-27.91195
 20
0.66529
 30
0.0
 10
-27.87157
 20
0.68622
 30
0.0
 10
-27.84555
 20
0.69971
 30
0.0
 10
-27.76862
 20
0.7266
 30
0.0
 10
-27.75627
 20
0.74354
 30
0.0
 10
-27.76843
 20
0.76267
 30
0.0
 10
-27.7888
 20
0.76479
 30
0.0
 10
-27.80671
 20
0.78838
 30
0.0
 10
-27.82179
 20
0.84238
 30
0.0
 10
-27.61821
 20
0.92399
 30
0.0
 10
-27.58021
 20
0.91421
 30
0.0
 10
-27.57078
 20
0.89284
 30
0.0
 10
-27.58819
 20
0.88542
 30
0.0
 10
-27.59986
 20
0.86685
 30
0.0
 10
-27.58722
 20
0.85156
 30
0.0
 10
-27.56504
 20
0.84081
 30
0.0
 10
-27.54731
 20
0.82859
 30
0.0
 10
-27.53833
 20
0.8224
 30
0.0
 10
-27.53005
 20
0.81598
 30
0.0
 10
-27.52064
 20
0.81066
 30
0.0
 10
-27.5068
 20
0.80285
 30
0.0
 10
-27.4985
 20
0.80019
 30
0.0
 10
-27.4901
 20
0.78838
 30
0.0
 10
-27.50646
 20
0.75775
 30
0.0
 10
-27.55046
 20
0.75469
 30
0.0
 10
-27.57336
 20
0.73233
 30
0.0
 10
-27.5675
 20
0.70988
 30
0.0
 10
-27.53536
 20
0.69939
 30
0.0
 10
-27.51711
 20
0.68494
 30
0.0
 10
-27.49513
 20
0.66756
 30
0.0
 10
-27.48289
 20
0.64825
 30
0.0
 10
-27.46491
 20
0.62474
 30
0.0
 10
-27.41994
 20
0.56593
 30
0.0
 10
-27.4821
 20
0.50579
 30
0.0
 10
-27.51796
 20
0.49429
 30
0.0
 10
-27.62304
 20
0.4606
 30
0.0
 10
-27.76397
 20
0.60429
 30
0.0
 10
-27.8805
 20
0.55459
 30
0.0
 10
-27.90127
 20
0.54573
 30
0.0
 10
-28.08072
 20
0.37188
 30
0.0
 10
-28.10802
 20
0.34502
 30
0.0
 10
-28.10802
 20
0.34502
 30
0.0
 10
-28.27886
 20
0.18513
 30
0.0
 10
-28.27886
 20
0.18513
 30
0.0
 10
-28.29324
 20
0.17183
 30
0.0
 10
-28.33266
 20
0.15055
 30
0.0
 10
-28.32123
 20
0.12775
 30
0.0
 10
-28.31296
 20
0.11849
 30
0.0
 10
-28.28798
 20
0.12172
 30
0.0
 10
-28.277
 20
0.12273
 30
0.0
 10
-28.2614
 20
0.12416
 30
0.0
 10
-28.25
 20
0.12675
 30
0.0
 10
-28.23505
 20
0.13081
 30
0.0
 10
-28.14698
 20
0.15472
 30
0.0
 10
-28.08684
 20
0.20235
 30
0.0
 10
-27.9854
 20
0.20151
 30
0.0
 10
-27.95277
 20
0.20124
 30
0.0
 10
-27.64757
 20
0.18893
 30
0.0
 10
-27.60884
 20
0.17906
 30
0.0
 10
-27.5825
 20
0.17235
 30
0.0
 10
-27.60046
 20
0.18202
 30
0.0
 10
-27.58773
 20
0.16882
 30
0.0
 10
-27.79549
 20
0.0054
 30
0.0
 10
-27.80801
 20
0.13104
 30
0.0
 10
-28.0382
 20
0.05035
 30
0.0
 10
-28.10366
 20
0.02741
 30
0.0
 10
-28.21176
 20
-0.10881
 30
0.0
 10
-28.27355
 20
-0.07264
 30
0.0
 10
-28.32053
 20
-0.04515
 30
0.0
 10
-28.24347
 20
-0.02322
 30
0.0
 10
-28.43206
 20
-0.08269
 30
0.0
 10
-28.50575
 20
-0.10593
 30
0.0
 10
-28.5721
 20
-0.13489
 30
0.0
 10
-28.64443
 20
-0.16181
 30
0.0
 10
-28.72116
 20
-0.19035
 30
0.0
 10
-28.77591
 20
-0.21917
 30
0.0
 10
-28.84491
 20
-0.25221
 30
0.0
 10
-28.87952
 20
-0.26879
 30
0.0
 10
-28.9149
 20
-0.28153
 30
0.0
 10
-28.94521
 20
-0.29763
 30
0.0
 10
-28.97992
 20
-0.31608
 30
0.0
 10
-29.00659
 20
-0.32619
 30
0.0
 10
-29.04561
 20
-0.3433
 30
0.0
 10
-29.12043
 20
-0.3761
 30
0.0
 10
-29.16569
 20
-0.41472
 30
0.0
 10
-29.23153
 20
-0.45401
 30
0.0
 10
-29.65407
 20
-0.70618
 30
0.0
 10
-30.01323
 20
-1.02833
 30
0.0
 10
-30.31899
 20
-1.41215
 30
0.0
 10
-30.31899
 20
-1.41215
 30
0.0
 10
-30.4105
 20
-1.53909
 30
0.0
 10
-30.4105
 20
-1.53909
 30
0.0
 10
-30.42406
 20
-1.56116
 30
0.0
 10
-30.42488
 20
-1.57448
 30
0.0
 10
-30.44724
 20
-1.5834
 30
0.0
 10
-30.45693
 20
-1.50353
 30
0.0
 10
-30.44516
 20
-1.47982
 30
0.0
 10
-30.39461
 20
-1.42624
 30
0.0
 10
-30.39461
 20
-1.42624
 30
0.0
 10
-30.30802
 20
-1.30564
 30
0.0
 10
-30.30802
 20
-1.30564
 30
0.0
 10
-30.21384
 20
-1.18601
 30
0.0
 10
-30.12479
 20
-1.07734
 30
0.0
 10
-30.01547
 20
-0.97016
 30
0.0
 10
-30.01547
 20
-0.97016
 30
0.0
 10
-29.7297
 20
-0.72923
 30
0.0
 10
-29.7297
 20
-0.72923
 30
0.0
 10
-29.66306
 20
-0.68046
 30
0.0
 10
-29.6844
 20
-0.66588
 30
0.0
 10
-29.70756
 20
-0.67254
 30
0.0
 10
-29.7255
 20
-0.6777
 30
0.0
 10
-29.75275
 20
-0.70416
 30
0.0
 10
-29.76738
 20
-0.71399
 30
0.0
 10
-29.76738
 20
-0.71399
 30
0.0
 10
-29.94995
 20
-0.85645
 30
0.0
 10
-29.94995
 20
-0.85645
 30
0.0
 10
-29.96731
 20
-0.8733
 30
0.0
 10
-29.96469
 20
-0.88069
 30
0.0
 10
-29.98826
 20
-0.88929
 30
0.0
 10
-29.98826
 20
-0.88929
 30
0.0
 10
-29.98021
 20
-0.82692
 30
0.0
 10
-29.98021
 20
-0.82692
 30
0.0
 10
-30.00033
 20
-0.82993
 30
0.0
 10
-30.05734
 20
-0.89359
 30
0.0
 10
-30.06585
 20
-0.84732
 30
0.0
 10
-30.08203
 20
-0.75922
 30
0.0
 10
-29.77308
 20
-0.40912
 30
0.0
 10
-29.71675
 20
-0.35538
 30
0.0
 10
-29.69002
 20
-0.32986
 30
0.0
 10
-29.6745
 20
-0.30208
 30
0.0
 10
-29.64958
 20
-0.27684
 30
0.0
 10
-29.64958
 20
-0.27684
 30
0.0
 10
-29.57704
 20
-0.20402
 30
0.0
 10
-29.57704
 20
-0.20402
 30
0.0
 10
-29.57704
 20
-0.20402
 30
0.0
 10
-29.5581
 20
-0.22405
 30
0.0
 10
-29.5581
 20
-0.22405
 30
0.0
 10
-29.55037
 20
-0.2326
 30
0.0
 10
-29.54545
 20
-0.23852
 30
0.0
 10
-29.53781
 20
-0.24733
 30
0.0
 10
-29.52399
 20
-0.2228
 30
0.0
 10
-29.55159
 20
-0.20457
 30
0.0
 10
-29.56217
 20
-0.18687
 30
0.0
 10
-29.55366
 20
-0.16013
 30
0.0
 10
-29.55663
 20
-0.18748
 30
0.0
 10
-29.54924
 20
-0.15807
 30
0.0
 10
-29.62378
 20
-0.16239
 30
0.0
 10
-29.62181
 20
-0.16826
 30
0.0
 10
-29.66676
 20
-0.2204
 30
0.0
 10
-29.73659
 20
-0.3014
 30
0.0
 10
-29.82026
 20
-0.36507
 30
0.0
 10
-29.89382
 20
-0.44171
 30
0.0
 10
-29.91045
 20
-0.45903
 30
0.0
 10
-29.91889
 20
-0.47598
 30
0.0
 10
-29.95181
 20
-0.47202
 30
0.0
 10
-29.95251
 20
-0.43785
 30
0.0
 10
-29.92166
 20
-0.33694
 30
0.0
 10
-29.90959
 20
-0.30308
 30
0.0
 10
-29.89096
 20
-0.25081
 30
0.0
 10
-29.8667
 20
-0.20096
 30
0.0
 10
-29.85144
 20
-0.14823
 30
0.0
 10
-29.78954
 20
0.06574
 30
0.0
 10
-29.67735
 20
0.23697
 30
0.0
 10
-29.58124
 20
0.43361
 30
0.0
 10
-29.45944
 20
0.6828
 30
0.0
 10
-29.06713
 20
1.23099
 30
0.0
 10
-28.90516
 20
1.46727
 30
0.0
 10
-28.87298
 20
1.51421
 30
0.0
 10
-28.84726
 20
1.5507
 30
0.0
 10
-28.81544
 20
1.59069
 30
0.0
 10
-28.81544
 20
1.59069
 30
0.0
 10
-28.33506
 20
2.1807
 30
0.0
 10
-28.33506
 20
2.1807
 30
0.0
 10
-28.27727
 20
2.25031
 30
0.0
 10
-28.02526
 20
2.62297
 30
0.0
 10
-27.99317
 20
2.69608
 30
0.0
 10
-27.9496
 20
2.79535
 30
0.0
 10
-27.90776
 20
2.8966
 30
0.0
 10
-27.86787
 20
2.99653
 30
0.0
 10
-27.84499
 20
3.05384
 30
0.0
 10
-27.84144
 20
3.10448
 30
0.0
 10
-27.82571
 20
3.16738
 30
0.0
 10
-27.81395
 20
3.21442
 30
0.0
 10
-27.66673
 20
3.55657
 30
0.0
 10
-27.63798
 20
3.61864
 30
0.0
 10
-27.61003
 20
3.679
 30
0.0
 10
-27.53324
 20
3.87765
 30
0.0
 10
-27.50439
 20
3.91652
 30
0.0
 10
-27.49642
 20
3.90696
 30
0.0
 10
-27.49904
 20
3.91578
 30
0.0
 10
-27.49829
 20
3.89957
 30
0.0
 10
-27.49746
 20
3.88147
 30
0.0
 10
-27.50668
 20
3.86446
 30
0.0
 10
-27.51137
 20
3.84615
 30
0.0
 10
-27.51835
 20
3.8189
 30
0.0
 10
-27.52584
 20
3.79888
 30
0.0
 10
-27.53329
 20
3.7728
 30
0.0
 10
-27.54818
 20
3.72059
 30
0.0
 10
-27.55626
 20
3.66876
 30
0.0
 10
-27.5714
 20
3.61996
 30
0.0
 10
-27.5714
 20
3.61996
 30
0.0
 10
-27.64944
 20
3.31672
 30
0.0
 10
-27.64944
 20
3.31672
 30
0.0
 10
-27.67094
 20
3.21889
 30
0.0
 10
-27.70577
 20
3.11732
 30
0.0
 10
-27.73056
 20
3.01722
 30
0.0
 10
-27.77244
 20
2.84808
 30
0.0
 10
-27.89256
 20
2.65737
 30
0.0
 10
-27.98798
 20
2.51204
 30
0.0
 10
-28.00221
 20
2.49037
 30
0.0
 10
-28.01532
 20
2.47741
 30
0.0
 10
-28.029
 20
2.45762
 30
0.0
 10
-28.09402
 20
2.36359
 30
0.0
 10
-28.15914
 20
2.27147
 30
0.0
 10
-28.23186
 20
2.18398
 30
0.0
 10
-28.23186
 20
2.18398
 30
0.0
 10
-28.44746
 20
1.92318
 30
0.0
 10
-28.44746
 20
1.92318
 30
0.0
 10
-28.58363
 20
1.75501
 30
0.0
 10
-28.69184
 20
1.62374
 30
0.0
 10
-28.81636
 20
1.44034
 30
0.0
 10
-28.86802
 20
1.36425
 30
0.0
 10
-28.92448
 20
1.29255
 30
0.0
 10
-28.97348
 20
1.21632
 30
0.0
 10
-28.99901
 20
1.17662
 30
0.0
 10
-29.0227
 20
1.14317
 30
0.0
 10
-29.04988
 20
1.10224
 30
0.0
 10
-29.17917
 20
0.9076
 30
0.0
 10
-29.30512
 20
0.71873
 30
0.0
 10
-29.40879
 20
0.50849
 30
0.0
 10
-29.46738
 20
0.3897
 30
0.0
 10
-29.60358
 20
0.08208
 30
0.0
 10
-29.59957
 20
-0.06407
 30
0.0
  0
SPLINE
  5
7A
330
1F
100
AcDbEntity
  8
Layer 1
 62
   250
370
    20
100
AcDbSpline
210
0.0
220
0.0
230
1.0
 70
    11
 71
     3
 72
    68
 73
    64
 74
     0
 42
0.0000000001
 43
0.0000000001
 40
0.0
 40
0.0
 40
0.0
 40
0.0
 40
0.0476190476190476
 40
0.0476190476190476
 40
0.0476190476190476
 40
0.0952380952380952
 40
0.0952380952380952
 40
0.0952380952380952
 40
0.1428571428571428
 40
0.1428571428571428
 40
0.1428571428571428
 40
0.1904761904761905
 40
0.1904761904761905
 40
0.1904761904761905
 40
0.2380952380952381
 40
0.2380952380952381
 40
0.2380952380952381
 40
0.2857142857142857
 40
0.2857142857142857
 40
0.2857142857142857
 40
0.3333333333333333
 40
0.3333333333333333
 40
0.3333333333333333
 40
0.3809523809523809
 40
0.3809523809523809
 40
0.3809523809523809
 40
0.4285714285714285
 40
0.4285714285714285
 40
0.4285714285714285
 40
0.4761904761904762
 40
0.4761904761904762
 40
0.4761904761904762
 40
0.5238095238095237
 40
0.5238095238095237
 40
0.5238095238095237
 40
0.5714285714285714
 40
0.5714285714285714
 40
0.5714285714285714
 40
0.6190476190476191
 40
0.6190476190476191
 40
0.6190476190476191
 40
0.6666666666666666
 40
0.6666666666666666
 40
0.6666666666666666
 40
0.7142857142857142
 40
0.7142857142857142
 40
0.7142857142857142
 40
0.7619047619047619
 40
0.7619047619047619
 40
0.7619047619047619
 40
0.8095238095238095
 40
0.8095238095238095
 40
0.8095238095238095
 40
0.8571428571428571
 40
0.8571428571428571
 40
0.8571428571428571
 40
0.9047619047619047
 40
0.9047619047619047
 40
0.9047619047619047
 40
0.9523809523809523
 40
0.9523809523809523
 40
0.9523809523809523
 40
1.0
 40
1.0
 40
1.0
 40
1.0
 10
-24.80925
 20
-3.30133
 30
0.0
 10
-24.83742
 20
-3.29966
 30
0.0
 10
-24.84774
 20
-3.26249
 30
0.0
 10
-24.85932
 20
-3.2375
 30
0.0
 10
-24.87238
 20
-3.20932
 30
0.0
 10
-24.88523
 20
-3.18246
 30
0.0
 10
-24.8975
 20
-3.15242
 30
0.0
 10
-24.96338
 20
-2.99112
 30
0.0
 10
-24.93366
 20
-2.91845
 30
0.0
 10
-24.95222
 20
-2.72039
 30
0.0
 10
-24.95958
 20
-2.64193
 30
0.0
 10
-24.95914
 20
-2.56395
 30
0.0
 10
-24.96667
 20
-2.48511
 30
0.0
 10
-24.97895
 20
-2.35658
 30
0.0
 10
-25.03479
 20
-1.9955
 30
0.0
 10
-25.06785
 20
-1.85996
 30
0.0
 10
-25.11475
 20
-1.66764
 30
0.0
 10
-25.16538
 20
-1.4721
 30
0.0
 10
-25.23494
 20
-1.29287
 30
0.0
 10
-25.25829
 20
-1.2327
 30
0.0
 10
-25.27686
 20
-1.1743
 30
0.0
 10
-25.30074
 20
-1.11765
 30
0.0
 10
-25.32605
 20
-1.05761
 30
0.0
 10
-25.35047
 20
-1.0052
 30
0.0
 10
-25.37762
 20
-0.94772
 30
0.0
 10
-25.47867
 20
-0.73384
 30
0.0
 10
-25.55688
 20
-0.59193
 30
0.0
 10
-25.67918
 20
-0.39191
 30
0.0
 10
-25.69998
 20
-0.35792
 30
0.0
 10
-25.70806
 20
-0.33425
 30
0.0
 10
-25.67542
 20
-0.31071
 30
0.0
 10
-25.63461
 20
-0.28127
 30
0.0
 10
-25.5989
 20
-0.35592
 30
0.0
 10
-25.55918
 20
-0.41178
 30
0.0
 10
-25.43978
 20
-0.57972
 30
0.0
 10
-25.38151
 20
-0.69557
 30
0.0
 10
-25.28684
 20
-0.87375
 30
0.0
 10
-25.28684
 20
-0.87375
 30
0.0
 10
-25.13124
 20
-1.2049
 30
0.0
 10
-25.13124
 20
-1.2049
 30
0.0
 10
-25.09079
 20
-1.33228
 30
0.0
 10
-25.04274
 20
-1.4444
 30
0.0
 10
-25.00073
 20
-1.56169
 30
0.0
 10
-24.98306
 20
-1.61103
 30
0.0
 10
-24.89179
 20
-1.959
 30
0.0
 10
-24.87838
 20
-2.04729
 30
0.0
 10
-24.8678
 20
-2.11703
 30
0.0
 10
-24.84938
 20
-2.18261
 30
0.0
 10
-24.84217
 20
-2.25554
 30
0.0
 10
-24.84217
 20
-2.25554
 30
0.0
 10
-24.82009
 20
-2.47531
 30
0.0
 10
-24.82009
 20
-2.47531
 30
0.0
 10
-24.81279
 20
-2.50858
 30
0.0
 10
-24.80886
 20
-2.54777
 30
0.0
 10
-24.80484
 20
-2.58198
 30
0.0
 10
-24.79213
 20
-2.68995
 30
0.0
 10
-24.79765
 20
-2.94553
 30
0.0
 10
-24.79821
 20
-3.06776
 30
0.0
 10
-24.79839
 20
-3.10762
 30
0.0
 10
-24.79479
 20
-3.14918
 30
0.0
 10
-24.80069
 20
-3.18817
 30
0.0
 10
-24.80688
 20
-3.22914
 30
0.0
 10
-24.80843
 20
-3.25363
 30
0.0
 10
-24.80925
 20
-3.30133
 30
0.0
  0
SPLINE
  5
7B
330
1F
100
AcDbEntity
  8
Layer 1
 62
   250
370
    20
100
AcDbSpline
210
0.0
220
0.0
230
1.0
 70
    11
 71
     3
 72
    26
 73
    22
 74
     0
 42
0.0000000001
 43
0.0000000001
 40
0.0
 40
0.0
 40
0.0
 40
0.0
 40
0.1428571428571428
 40
0.1428571428571428
 40
0.1428571428571428
 40
0.2857142857142857
 40
0.2857142857142857
 40
0.2857142857142857
 40
0.4285714285714285
 40
0.4285714285714285
 40
0.4285714285714285
 40
0.5714285714285714
 40
0.5714285714285714
 40
0.5714285714285714
 40
0.7142857142857142
 40
0.7142857142857142
 40
0.7142857142857142
 40
0.8571428571428571
 40
0.8571428571428571
 40
0.8571428571428571
 40
1.0
 40
1.0
 40
1.0
 40
1.0
 10
-25.89698
 20
-0.61608
 30
0.0
 10
-25.849
 20
-0.60071
 30
0.0
 10
-25.76172
 20
-0.72352
 30
0.0
 10
-25.73349
 20
-0.75998
 30
0.0
 10
-25.63792
 20
-0.88339
 30
0.0
 10
-25.55873
 20
-1.00248
 30
0.0
 10
-25.49504
 20
-1.1493
 30
0.0
 10
-25.47257
 20
-1.2011
 30
0.0
 10
-25.4571
 20
-1.22537
 30
0.0
 10
-25.50371
 20
-1.25575
 30
0.0
 10
-25.52146
 20
-1.26732
 30
0.0
 10
-25.59519
 20
-1.29622
 30
0.0
 10
-25.62001
 20
-1.30062
 30
0.0
 10
-25.63537
 20
-1.27492
 30
0.0
 10
-25.63131
 20
-1.23335
 30
0.0
 10
-25.63555
 20
-1.20149
 30
0.0
 10
-25.65546
 20
-1.0516
 30
0.0
 10
-25.73909
 20
-0.89972
 30
0.0
 10
-25.8209
 20
-0.78009
 30
0.0
 10
-25.84871
 20
-0.73943
 30
0.0
 10
-25.90473
 20
-0.65935
 30
0.0
 10
-25.89698
 20
-0.61608
 30
0.0
  0
SPLINE
  5
7C
330
1F
100
AcDbEntity
  8
Layer 1
 62
   250
370
    20
100
AcDbSpline
210
0.0
220
0.0
230
1.0
 70
    11
 71
     3
 72
   167
 73
   163
 74
     0
 42
0.0000000001
 43
0.0000000001
 40
0.0
 40
0.0
 40
0.0
 40
0.0
 40
0.0185185185185185
 40
0.0185185185185185
 40
0.0185185185185185
 40
0.037037037037037
 40
0.037037037037037
 40
0.037037037037037
 40
0.0555555555555556
 40
0.0555555555555556
 40
0.0555555555555556
 40
0.0740740740740741
 40
0.0740740740740741
 40
0.0740740740740741
 40
0.0925925925925926
 40
0.0925925925925926
 40
0.0925925925925926
 40
0.1111111111111111
 40
0.1111111111111111
 40
0.1111111111111111
 40
0.1296296296296296
 40
0.1296296296296296
 40
0.1296296296296296
 40
0.1481481481481481
 40
0.1481481481481481
 40
0.1481481481481481
 40
0.1666666666666667
 40
0.1666666666666667
 40
0.1666666666666667
 40
0.1851851851851852
 40
0.1851851851851852
 40
0.1851851851851852
 40
0.2037037037037037
 40
0.2037037037037037
 40
0.2037037037037037
 40
0.2222222222222222
 40
0.2222222222222222
 40
0.2222222222222222
 40
0.2407407407407407
 40
0.2407407407407407
 40
0.2407407407407407
 40
0.2592592592592592
 40
0.2592592592592592
 40
0.2592592592592592
 40
0.2777777777777778
 40
0.2777777777777778
 40
0.2777777777777778
 40
0.2962962962962963
 40
0.2962962962962963
 40
0.2962962962962963
 40
0.3148148148148148
 40
0.3148148148148148
 40
0.3148148148148148
 40
0.3333333333333333
 40
0.3333333333333333
 40
0.3333333333333333
 40
0.3518518518518519
 40
0.3518518518518519
 40
0.3518518518518519
 40
0.3703703703703703
 40
0.3703703703703703
 40
0.3703703703703703
 40
0.3888888888888888
 40
0.3888888888888888
 40
0.3888888888888888
 40
0.4074074074074074
 40
0.4074074074074074
 40
0.4074074074074074
 40
0.4259259259259259
 40
0.4259259259259259
 40
0.4259259259259259
 40
0.4444444444444444
 40
0.4444444444444444
 40
0.4444444444444444
 40
0.4629629629629629
 40
0.4629629629629629
 40
0.4629629629629629
 40
0.4814814814814815
 40
0.4814814814814815
 40
0.4814814814814815
 40
0.5
 40
0.5
 40
0.5
 40
0.5185185185185185
 40
0.5185185185185185
 40
0.5185185185185185
 40
0.537037037037037
 40
0.537037037037037
 40
0.537037037037037
 40
0.5555555555555556
 40
0.5555555555555556
 40
0.5555555555555556
 40
0.5740740740740741
 40
0.5740740740740741
 40
0.5740740740740741
 40
0.5925925925925926
 40
0.5925925925925926
 40
0.5925925925925926
 40
0.611111111111111
 40
0.611111111111111
 40
0.611111111111111
 40
0.6296296296296295
 40
0.6296296296296295
 40
0.6296296296296295
 40
0.6481481481481481
 40
0.6481481481481481
 40
0.6481481481481481
 40
0.6666666666666666
 40
0.6666666666666666
 40
0.6666666666666666
 40
0.6851851851851851
 40
0.6851851851851851
 40
0.6851851851851851
 40
0.7037037037037037
 40
0.7037037037037037
 40
0.7037037037037037
 40
0.7222222222222222
 40
0.7222222222222222
 40
0.7222222222222222
 40
0.7407407407407407
 40
0.7407407407407407
 40
0.7407407407407407
 40
0.7592592592592592
 40
0.7592592592592592
 40
0.7592592592592592
 40
0.7777777777777777
 40
0.7777777777777777
 40
0.7777777777777777
 40
0.7962962962962963
 40
0.7962962962962963
 40
0.7962962962962963
 40
0.8148148148148148
 40
0.8148148148148148
 40
0.8148148148148148
 40
0.8333333333333333
 40
0.8333333333333333
 40
0.8333333333333333
 40
0.8518518518518519
 40
0.8518518518518519
 40
0.8518518518518519
 40
0.8703703703703703
 40
0.8703703703703703
 40
0.8703703703703703
 40
0.8888888888888888
 40
0.8888888888888888
 40
0.8888888888888888
 40
0.9074074074074073
 40
0.9074074074074073
 40
0.9074074074074073
 40
0.9259259259259258
 40
0.9259259259259258
 40
0.9259259259259258
 40
0.9444444444444444
 40
0.9444444444444444
 40
0.9444444444444444
 40
0.9629629629629629
 40
0.9629629629629629
 40
0.9629629629629629
 40
0.9814814814814814
 40
0.9814814814814814
 40
0.9814814814814814
 40
1.0
 40
1.0
 40
1.0
 40
1.0
 10
-28.04692
 20
-2.47956
 30
0.0
 10
-28.04692
 20
-2.47956
 30
0.0
 10
-27.75546
 20
-2.47355
 30
0.0
 10
-27.75546
 20
-2.47355
 30
0.0
 10
-27.71056
 20
-2.47232
 30
0.0
 10
-27.66921
 20
-2.47533
 30
0.0
 10
-27.62971
 20
-2.45929
 30
0.0
 10
-27.60198
 20
-2.44803
 30
0.0
 10
-27.56065
 20
-2.40733
 30
0.0
 10
-27.53918
 20
-2.42507
 30
0.0
 10
-27.5041
 20
-2.45585
 30
0.0
 10
-27.58909
 20
-2.52115
 30
0.0
 10
-27.61006
 20
-2.52925
 30
0.0
 10
-27.68838
 20
-2.55951
 30
0.0
 10
-28.17215
 20
-2.59692
 30
0.0
 10
-28.30322
 20
-2.61956
 30
0.0
 10
-28.33397
 20
-2.62487
 30
0.0
 10
-28.3571
 20
-2.62622
 30
0.0
 10
-28.38884
 20
-2.62788
 30
0.0
 10
-28.42671
 20
-2.62985
 30
0.0
 10
-28.44529
 20
-2.63945
 30
0.0
 10
-28.47423
 20
-2.64343
 30
0.0
 10
-28.50461
 20
-2.64759
 30
0.0
 10
-28.53379
 20
-2.64749
 30
0.0
 10
-28.56264
 20
-2.65147
 30
0.0
 10
-28.59366
 20
-2.65576
 30
0.0
 10
-28.62014
 20
-2.66242
 30
0.0
 10
-28.64742
 20
-2.66685
 30
0.0
 10
-28.68028
 20
-2.6722
 30
0.0
 10
-28.70168
 20
-2.67623
 30
0.0
 10
-28.73053
 20
-2.67842
 30
0.0
 10
-28.73053
 20
-2.67842
 30
0.0
 10
-28.98648
 20
-2.71639
 30
0.0
 10
-28.98648
 20
-2.71639
 30
0.0
 10
-29.13621
 20
-2.74317
 30
0.0
 10
-29.31034
 20
-2.79823
 30
0.0
 10
-29.45133
 20
-2.84027
 30
0.0
 10
-29.54128
 20
-2.86709
 30
0.0
 10
-30.03356
 20
-3.00721
 30
0.0
 10
-30.09251
 20
-2.92665
 30
0.0
 10
-30.12828
 20
-2.87689
 30
0.0
 10
-30.03519
 20
-2.80989
 30
0.0
 10
-30.01424
 20
-2.7874
 30
0.0
 10
-29.9318
 20
-2.69889
 30
0.0
 10
-29.81892
 20
-2.63644
 30
0.0
 10
-29.76797
 20
-2.57419
 30
0.0
 10
-29.73305
 20
-2.53152
 30
0.0
 10
-29.70413
 20
-2.48551
 30
0.0
 10
-29.66749
 20
-2.43922
 30
0.0
 10
-29.63245
 20
-2.39496
 30
0.0
 10
-29.60523
 20
-2.35203
 30
0.0
 10
-29.56959
 20
-2.30736
 30
0.0
 10
-29.56959
 20
-2.30736
 30
0.0
 10
-29.05322
 20
-1.66918
 30
0.0
 10
-29.05322
 20
-1.66918
 30
0.0
 10
-29.01195
 20
-1.61559
 30
0.0
 10
-28.83235
 20
-1.40109
 30
0.0
 10
-28.78612
 20
-1.3589
 30
0.0
 10
-28.7657
 20
-1.34027
 30
0.0
 10
-28.74464
 20
-1.32316
 30
0.0
 10
-28.72254
 20
-1.3048
 30
0.0
 10
-28.67428
 20
-1.26471
 30
0.0
 10
-28.64316
 20
-1.24181
 30
0.0
 10
-28.58631
 20
-1.20544
 30
0.0
 10
-28.46419
 20
-1.12729
 30
0.0
 10
-28.44331
 20
-1.19534
 30
0.0
 10
-28.3758
 20
-1.27844
 30
0.0
 10
-28.36012
 20
-1.29772
 30
0.0
 10
-28.33677
 20
-1.31338
 30
0.0
 10
-28.3134
 20
-1.33341
 30
0.0
 10
-28.26872
 20
-1.37171
 30
0.0
 10
-28.21189
 20
-1.38786
 30
0.0
 10
-28.14789
 20
-1.39763
 30
0.0
 10
-28.07243
 20
-1.40914
 30
0.0
 10
-28.02067
 20
-1.39271
 30
0.0
 10
-27.95371
 20
-1.37324
 30
0.0
 10
-27.77615
 20
-1.3216
 30
0.0
 10
-27.60388
 20
-1.11955
 30
0.0
 10
-27.39414
 20
-1.00236
 30
0.0
 10
-27.34339
 20
-0.97401
 30
0.0
 10
-27.29866
 20
-0.94744
 30
0.0
 10
-27.2471
 20
-0.91961
 30
0.0
 10
-27.17421
 20
-0.88025
 30
0.0
 10
-26.99989
 20
-0.81034
 30
0.0
 10
-26.91898
 20
-0.78207
 30
0.0
 10
-26.85876
 20
-0.76104
 30
0.0
 10
-26.80406
 20
-0.75008
 30
0.0
 10
-26.74036
 20
-0.73088
 30
0.0
 10
-26.71328
 20
-0.72271
 30
0.0
 10
-26.68108
 20
-0.71458
 30
0.0
 10
-26.65385
 20
-0.70534
 30
0.0
 10
-26.62169
 20
-0.69441
 30
0.0
 10
-26.58939
 20
-0.69364
 30
0.0
 10
-26.55697
 20
-0.68462
 30
0.0
 10
-26.47902
 20
-0.66293
 30
0.0
 10
-26.43978
 20
-0.65782
 30
0.0
 10
-26.34864
 20
-0.65674
 30
0.0
 10
-26.18191
 20
-0.65476
 30
0.0
 10
-26.12892
 20
-0.67373
 30
0.0
 10
-26.02466
 20
-0.79879
 30
0.0
 10
-25.9876
 20
-0.84325
 30
0.0
 10
-25.95798
 20
-0.87349
 30
0.0
 10
-25.92883
 20
-0.93266
 30
0.0
 10
-25.90816
 20
-0.97462
 30
0.0
 10
-25.87204
 20
-1.0508
 30
0.0
 10
-25.8386
 20
-1.07794
 30
0.0
 10
-25.81955
 20
-1.07422
 30
0.0
 10
-25.82081
 20
-1.06928
 30
0.0
 10
-25.79915
 20
-1.0619
 30
0.0
 10
-25.79166
 20
-1.05935
 30
0.0
 10
-25.78505
 20
-1.05755
 30
0.0
 10
-25.77653
 20
-1.05723
 30
0.0
 10
-25.75406
 20
-1.05641
 30
0.0
 10
-25.75439
 20
-1.0595
 30
0.0
 10
-25.75053
 20
-1.06343
 30
0.0
 10
-25.72636
 20
-1.08805
 30
0.0
 10
-25.74475
 20
-1.28381
 30
0.0
 10
-25.75288
 20
-1.3326
 30
0.0
 10
-25.75927
 20
-1.37091
 30
0.0
 10
-25.76287
 20
-1.37074
 30
0.0
 10
-25.78918
 20
-1.39112
 30
0.0
 10
-25.85678
 20
-1.44349
 30
0.0
 10
-25.9507
 20
-1.49374
 30
0.0
 10
-26.04516
 20
-1.51319
 30
0.0
 10
-26.06383
 20
-1.48537
 30
0.0
 10
-26.08616
 20
-1.39968
 30
0.0
 10
-26.09878
 20
-1.3611
 30
0.0
 10
-26.12193
 20
-1.29035
 30
0.0
 10
-26.18889
 20
-1.12739
 30
0.0
 10
-26.22402
 20
-1.07131
 30
0.0
 10
-26.29926
 20
-0.9512
 30
0.0
 10
-26.30912
 20
-0.93249
 30
0.0
 10
-26.4295
 20
-0.85605
 30
0.0
 10
-26.48908
 20
-0.81822
 30
0.0
 10
-26.52237
 20
-0.83014
 30
0.0
 10
-26.59088
 20
-0.85238
 30
0.0
 10
-26.69553
 20
-0.88635
 30
0.0
 10
-26.78945
 20
-0.93949
 30
0.0
 10
-26.87428
 20
-0.98916
 30
0.0
 10
-26.92028
 20
-1.01609
 30
0.0
 10
-26.96504
 20
-1.0403
 30
0.0
 10
-27.00498
 20
-1.06616
 30
0.0
 10
-27.13493
 20
-1.15031
 30
0.0
 10
-27.25389
 20
-1.22675
 30
0.0
 10
-27.38078
 20
-1.31812
 30
0.0
 10
-27.60884
 20
-1.48236
 30
0.0
 10
-27.61718
 20
-1.48789
 30
0.0
 10
-27.92425
 20
-1.60987
 30
0.0
 10
-28.12169
 20
-1.68831
 30
0.0
 10
-28.32995
 20
-1.76405
 30
0.0
 10
-28.53075
 20
-1.83851
 30
0.0
 10
-28.70713
 20
-1.90391
 30
0.0
 10
-28.80343
 20
-1.9407
 30
0.0
 10
-28.9671
 20
-2.02411
 30
0.0
 10
-29.06995
 20
-2.07652
 30
0.0
 10
-29.23276
 20
-2.30068
 30
0.0
 10
-29.17388
 20
-2.4237
 30
0.0
 10
-29.11653
 20
-2.54352
 30
0.0
 10
-29.0262
 20
-2.51825
 30
0.0
 10
-28.85725
 20
-2.49859
 30
0.0
 10
-28.58588
 20
-2.46701
 30
0.0
 10
-28.3254
 20
-2.4801
 30
0.0
 10
-28.04692
 20
-2.47956
 30
0.0
  0
SPLINE
  5
7D
330
1F
100
AcDbEntity
  8
Layer 1
 62
   250
370
    20
100
AcDbSpline
210
0.0
220
0.0
230
1.0
 70
    11
 71
     3
 72
    62
 73
    58
 74
     0
 42
0.0000000001
 43
0.0000000001
 40
0.0
 40
0.0
 40
0.0
 40
0.0
 40
0.0526315789473684
 40
0.0526315789473684
 40
0.0526315789473684
 40
0.1052631578947368
 40
0.1052631578947368
 40
0.1052631578947368
 40
0.1578947368421053
 40
0.1578947368421053
 40
0.1578947368421053
 40
0.2105263157894737
 40
0.2105263157894737
 40
0.2105263157894737
 40
0.2631578947368421
 40
0.2631578947368421
 40
0.2631578947368421
 40
0.3157894736842105
 40
0.3157894736842105
 40
0.3157894736842105
 40
0.3684210526315789
 40
0.3684210526315789
 40
0.3684210526315789
 40
0.4210526315789473
 40
0.4210526315789473
 40
0.4210526315789473
 40
0.4736842105263158
 40
0.4736842105263158
 40
0.4736842105263158
 40
0.5263157894736842
 40
0.5263157894736842
 40
0.5263157894736842
 40
0.5789473684210527
 40
0.5789473684210527
 40
0.5789473684210527
 40
0.631578947368421
 40
0.631578947368421
 40
0.631578947368421
 40
0.6842105263157894
 40
0.6842105263157894
 40
0.6842105263157894
 40
0.7368421052631579
 40
0.7368421052631579
 40
0.7368421052631579
 40
0.7894736842105263
 40
0.7894736842105263
 40
0.7894736842105263
 40
0.8421052631578947
 40
0.8421052631578947
 40
0.8421052631578947
 40
0.894736842105263
 40
0.894736842105263
 40
0.894736842105263
 40
0.9473684210526315
 40
0.9473684210526315
 40
0.9473684210526315
 40
1.0
 40
1.0
 40
1.0
 40
1.0
 10
-29.90909
 20
-2.04713
 30
0.0
 10
-29.8161
 20
-2.04642
 30
0.0
 10
-29.52026
 20
-1.86693
 30
0.0
 10
-29.46977
 20
-1.92942
 30
0.0
 10
-29.42355
 20
-2.00329
 30
0.0
 10
-29.66874
 20
-2.2797
 30
0.0
 10
-29.70022
 20
-2.31689
 30
0.0
 10
-29.70022
 20
-2.31689
 30
0.0
 10
-29.99624
 20
-2.65423
 30
0.0
 10
-29.99624
 20
-2.65423
 30
0.0
 10
-30.04702
 20
-2.70791
 30
0.0
 10
-30.09991
 20
-2.7611
 30
0.0
 10
-30.14943
 20
-2.81456
 30
0.0
 10
-30.20213
 20
-2.87146
 30
0.0
 10
-30.23523
 20
-2.91664
 30
0.0
 10
-30.31892
 20
-2.95935
 30
0.0
 10
-30.36411
 20
-2.9824
 30
0.0
 10
-30.3933
 20
-2.98816
 30
0.0
 10
-30.43389
 20
-2.95509
 30
0.0
 10
-30.46649
 20
-2.92855
 30
0.0
 10
-30.46812
 20
-2.89501
 30
0.0
 10
-30.48383
 20
-2.84814
 30
0.0
 10
-30.50567
 20
-2.78299
 30
0.0
 10
-30.50499
 20
-2.78187
 30
0.0
 10
-30.47904
 20
-2.72084
 30
0.0
 10
-30.45813
 20
-2.67165
 30
0.0
 10
-30.39599
 20
-2.55692
 30
0.0
 10
-30.36607
 20
-2.51419
 30
0.0
 10
-30.29972
 20
-2.41943
 30
0.0
 10
-30.12376
 20
-2.13206
 30
0.0
 10
-30.06515
 20
-2.03036
 30
0.0
 10
-29.9982
 20
-1.9142
 30
0.0
 10
-29.82976
 20
-1.6574
 30
0.0
 10
-29.74037
 20
-1.565
 30
0.0
 10
-29.71226
 20
-1.53595
 30
0.0
 10
-29.68732
 20
-1.51238
 30
0.0
 10
-29.66032
 20
-1.48242
 30
0.0
 10
-29.58089
 20
-1.39431
 30
0.0
 10
-29.57772
 20
-1.40205
 30
0.0
 10
-29.49144
 20
-1.33728
 30
0.0
 10
-29.46146
 20
-1.31477
 30
0.0
 10
-29.3217
 20
-1.22077
 30
0.0
 10
-29.27551
 20
-1.24683
 30
0.0
 10
-29.28669
 20
-1.27962
 30
0.0
 10
-29.34412
 20
-1.30135
 30
0.0
 10
-29.38035
 20
-1.31982
 30
0.0
 10
-29.44372
 20
-1.35214
 30
0.0
 10
-29.52609
 20
-1.43062
 30
0.0
 10
-29.56922
 20
-1.48931
 30
0.0
 10
-29.59474
 20
-1.52402
 30
0.0
 10
-29.62117
 20
-1.55703
 30
0.0
 10
-29.6471
 20
-1.59086
 30
0.0
 10
-29.70072
 20
-1.66081
 30
0.0
 10
-29.73595
 20
-1.73394
 30
0.0
 10
-29.7839
 20
-1.81263
 30
0.0
 10
-29.80659
 20
-1.84986
 30
0.0
 10
-29.90767
 20
-2.00987
 30
0.0
 10
-29.90909
 20
-2.04713
 30
0.0
  0
SPLINE
  5
7E
330
1F
100
AcDbEntity
  8
Layer 1
 62
   250
370
    20
100
AcDbSpline
210
0.0
220
0.0
230
1.0
 70
    11
 71
     3
 72
    41
 73
    37
 74
     0
 42
0.0000000001
 43
0.0000000001
 40
0.0
 40
0.0
 40
0.0
 40
0.0
 40
0.0833333333333333
 40
0.0833333333333333
 40
0.0833333333333333
 40
0.1666666666666667
 40
0.1666666666666667
 40
0.1666666666666667
 40
0.25
 40
0.25
 40
0.25
 40
0.3333333333333333
 40
0.3333333333333333
 40
0.3333333333333333
 40
0.4166666666666666
 40
0.4166666666666666
 40
0.4166666666666666
 40
0.5
 40
0.5
 40
0.5
 40
0.5833333333333333
 40
0.5833333333333333
 40
0.5833333333333333
 40
0.6666666666666666
 40
0.6666666666666666
 40
0.6666666666666666
 40
0.75
 40
0.75
 40
0.75
 40
0.8333333333333333
 40
0.8333333333333333
 40
0.8333333333333333
 40
0.9166666666666666
 40
0.9166666666666666
 40
0.9166666666666666
 40
1.0
 40
1.0
 40
1.0
 40
1.0
 10
-26.63409
 20
-2.61824
 30
0.0
 10
-26.71333
 20
-2.62111
 30
0.0
 10
-26.77584
 20
-2.55621
 30
0.0
 10
-26.8179
 20
-2.65965
 30
0.0
 10
-26.8548
 20
-2.75041
 30
0.0
 10
-26.76245
 20
-2.77938
 30
0.0
 10
-26.87832
 20
-2.84638
 30
0.0
 10
-26.94871
 20
-2.88709
 30
0.0
 10
-27.08712
 20
-2.93144
 30
0.0
 10
-27.17268
 20
-2.93716
 30
0.0
 10
-27.21845
 20
-2.94022
 30
0.0
 10
-27.2742
 20
-2.95352
 30
0.0
 10
-27.26691
 20
-2.90105
 30
0.0
 10
-27.23845
 20
-2.88732
 30
0.0
 10
-27.14555
 20
-2.8983
 30
0.0
 10
-27.0331
 20
-2.81487
 30
0.0
 10
-27.00524
 20
-2.79419
 30
0.0
 10
-26.96934
 20
-2.76795
 30
0.0
 10
-26.95596
 20
-2.72946
 30
0.0
 10
-26.94107
 20
-2.68663
 30
0.0
 10
-26.92882
 20
-2.6374
 30
0.0
 10
-26.93855
 20
-2.58744
 30
0.0
 10
-26.96696
 20
-2.44152
 30
0.0
 10
-27.06552
 20
-2.36897
 30
0.0
 10
-27.20053
 20
-2.36623
 30
0.0
 10
-27.26811
 20
-2.36485
 30
0.0
 10
-27.28775
 20
-2.37486
 30
0.0
 10
-27.34486
 20
-2.3866
 30
0.0
 10
-27.37516
 20
-2.39283
 30
0.0
 10
-27.42302
 20
-2.36676
 30
0.0
 10
-27.31878
 20
-2.33375
 30
0.0
 10
-27.13773
 20
-2.27641
 30
0.0
 10
-27.10134
 20
-2.24219
 30
0.0
 10
-26.91881
 20
-2.28712
 30
0.0
 10
-26.79258
 20
-2.31819
 30
0.0
 10
-26.5442
 20
-2.464
 30
0.0
 10
-26.63409
 20
-2.61824
 30
0.0
  0
SPLINE
  5
7F
330
1F
100
AcDbEntity
  8
Layer 1
 62
   250
370
    20
100
AcDbSpline
210
0.0
220
0.0
230
1.0
 70
    11
 71
     3
 72
    32
 73
    28
 74
     0
 42
0.0000000001
 43
0.0000000001
 40
0.0
 40
0.0
 40
0.0
 40
0.0
 40
0.1111111111111111
 40
0.1111111111111111
 40
0.1111111111111111
 40
0.2222222222222222
 40
0.2222222222222222
 40
0.2222222222222222
 40
0.3333333333333333
 40
0.3333333333333333
 40
0.3333333333333333
 40
0.4444444444444444
 40
0.4444444444444444
 40
0.4444444444444444
 40
0.5555555555555556
 40
0.5555555555555556
 40
0.5555555555555556
 40
0.6666666666666666
 40
0.6666666666666666
 40
0.6666666666666666
 40
0.7777777777777777
 40
0.7777777777777777
 40
0.7777777777777777
 40
0.8888888888888888
 40
0.8888888888888888
 40
0.8888888888888888
 40
1.0
 40
1.0
 40
1.0
 40
1.0
 10
-27.53757
 20
-2.64788
 30
0.0
 10
-27.53309
 20
-2.59272
 30
0.0
 10
-27.48944
 20
-2.54687
 30
0.0
 10
-27.46152
 20
-2.52091
 30
0.0
 10
-27.33628
 20
-2.40446
 30
0.0
 10
-27.08421
 20
-2.40305
 30
0.0
 10
-27.03423
 20
-2.54817
 30
0.0
 10
-27.01487
 20
-2.60436
 30
0.0
 10
-27.03737
 20
-2.66815
 30
0.0
 10
-27.05878
 20
-2.71097
 30
0.0
 10
-27.08405
 20
-2.76155
 30
0.0
 10
-27.11407
 20
-2.79065
 30
0.0
 10
-27.16226
 20
-2.81432
 30
0.0
 10
-27.28789
 20
-2.87605
 30
0.0
 10
-27.45026
 20
-2.83613
 30
0.0
 10
-27.47546
 20
-2.78752
 30
0.0
 10
-27.4362
 20
-2.77008
 30
0.0
 10
-27.30972
 20
-2.83863
 30
0.0
 10
-27.20987
 20
-2.78387
 30
0.0
 10
-27.15704
 20
-2.7549
 30
0.0
 10
-27.07382
 20
-2.67322
 30
0.0
 10
-27.11718
 20
-2.58081
 30
0.0
 10
-27.16075
 20
-2.48797
 30
0.0
 10
-27.37886
 20
-2.45993
 30
0.0
 10
-27.49508
 20
-2.60523
 30
0.0
 10
-27.51073
 20
-2.62481
 30
0.0
 10
-27.51364
 20
-2.63942
 30
0.0
 10
-27.53757
 20
-2.64788
 30
0.0
  0
SPLINE
  5
80
330
1F
100
AcDbEntity
  8
Layer 1
 62
   250
370
    20
100
AcDbSpline
210
0.0
220
0.0
230
1.0
 70
    11
 71
     3
 72
    11
 73
     7
 74
     0
 42
0.0000000001
 43
0.0000000001
 40
0.0
 40
0.0
 40
0.0
 40
0.0
 40
0.5
 40
0.5
 40
0.5
 40
1.0
 40
1.0
 40
1.0
 40
1.0
 10
-27.24643
 20
-2.69224
 30
0.0
 10
-27.28786
 20
-2.77069
 30
0.0
 10
-27.41807
 20
-2.70116
 30
0.0
 10
-27.36044
 20
-2.62199
 30
0.0
 10
-27.30671
 20
-2.54819
 30
0.0
 10
-27.19831
 20
-2.60115
 30
0.0
 10
-27.24643
 20
-2.69224
 30
0.0
  0
SPLINE
  5
81
330
1F
100
AcDbEntity
  8
Layer 1
 62
   250
370
    20
100
AcDbSpline
210
0.0
220
0.0
230
1.0
 70
    11
 71
     3
 72
    26
 73
    22
 74
     0
 42
0.0000000001
 43
0.0000000001
 40
0.0
 40
0.0
 40
0.0
 40
0.0
 40
0.1428571428571428
 40
0.1428571428571428
 40
0.1428571428571428
 40
0.2857142857142857
 40
0.2857142857142857
 40
0.2857142857142857
 40
0.4285714285714285
 40
0.4285714285714285
 40
0.4285714285714285
 40
0.5714285714285714
 40
0.5714285714285714
 40
0.5714285714285714
 40
0.7142857142857142
 40
0.7142857142857142
 40
0.7142857142857142
 40
0.8571428571428571
 40
0.8571428571428571
 40
0.8571428571428571
 40
1.0
 40
1.0
 40
1.0
 40
1.0
 10
-30.71483
 20
-3.11935
 30
0.0
 10
-30.74594
 20
-3.07934
 30
0.0
 10
-30.74272
 20
-2.90771
 30
0.0
 10
-30.73546
 20
-2.84515
 30
0.0
 10
-30.72511
 20
-2.75612
 30
0.0
 10
-30.73204
 20
-2.64887
 30
0.0
 10
-30.71055
 20
-2.56744
 30
0.0
 10
-30.66728
 20
-2.57349
 30
0.0
 10
-30.66721
 20
-2.59559
 30
0.0
 10
-30.64713
 20
-2.6246
 30
0.0
 10
-30.64713
 20
-2.6246
 30
0.0
 10
-30.56311
 20
-2.7874
 30
0.0
 10
-30.56311
 20
-2.7874
 30
0.0
 10
-30.55148
 20
-2.81809
 30
0.0
 10
-30.54253
 20
-2.84601
 30
0.0
 10
-30.53062
 20
-2.87822
 30
0.0
 10
-30.48543
 20
-3.00044
 30
0.0
 10
-30.47901
 20
-3.00327
 30
0.0
 10
-30.544
 20
-3.04273
 30
0.0
 10
-30.58523
 20
-3.06777
 30
0.0
 10
-30.6631
 20
-3.11224
 30
0.0
 10
-30.71483
 20
-3.11935
 30
0.0
  0
SPLINE
  5
82
330
1F
100
AcDbEntity
  8
Layer 1
 62
   250
370
    20
100
AcDbSpline
210
0.0
220
0.0
230
1.0
 70
    11
 71
     3
 72
    98
 73
    94
 74
     0
 42
0.0000000001
 43
0.0000000001
 40
0.0
 40
0.0
 40
0.0
 40
0.0
 40
0.032258064516129
 40
0.032258064516129
 40
0.032258064516129
 40
0.0645161290322581
 40
0.0645161290322581
 40
0.0645161290322581
 40
0.0967741935483871
 40
0.0967741935483871
 40
0.0967741935483871
 40
0.1290322580645161
 40
0.1290322580645161
 40
0.1290322580645161
 40
0.1612903225806452
 40
0.1612903225806452
 40
0.1612903225806452
 40
0.1935483870967742
 40
0.1935483870967742
 40
0.1935483870967742
 40
0.2258064516129032
 40
0.2258064516129032
 40
0.2258064516129032
 40
0.2580645161290323
 40
0.2580645161290323
 40
0.2580645161290323
 40
0.2903225806451613
 40
0.2903225806451613
 40
0.2903225806451613
 40
0.3225806451612903
 40
0.3225806451612903
 40
0.3225806451612903
 40
0.3548387096774194
 40
0.3548387096774194
 40
0.3548387096774194
 40
0.3870967741935484
 40
0.3870967741935484
 40
0.3870967741935484
 40
0.4193548387096774
 40
0.4193548387096774
 40
0.4193548387096774
 40
0.4516129032258064
 40
0.4516129032258064
 40
0.4516129032258064
 40
0.4838709677419355
 40
0.4838709677419355
 40
0.4838709677419355
 40
0.5161290322580645
 40
0.5161290322580645
 40
0.5161290322580645
 40
0.5483870967741935
 40
0.5483870967741935
 40
0.5483870967741935
 40
0.5806451612903225
 40
0.5806451612903225
 40
0.5806451612903225
 40
0.6129032258064516
 40
0.6129032258064516
 40
0.6129032258064516
 40
0.6451612903225806
 40
0.6451612903225806
 40
0.6451612903225806
 40
0.6774193548387096
 40
0.6774193548387096
 40
0.6774193548387096
 40
0.7096774193548387
 40
0.7096774193548387
 40
0.7096774193548387
 40
0.7419354838709677
 40
0.7419354838709677
 40
0.7419354838709677
 40
0.7741935483870968
 40
0.7741935483870968
 40
0.7741935483870968
 40
0.8064516129032258
 40
0.8064516129032258
 40
0.8064516129032258
 40
0.8387096774193548
 40
0.8387096774193548
 40
0.8387096774193548
 40
0.8709677419354839
 40
0.8709677419354839
 40
0.8709677419354839
 40
0.9032258064516129
 40
0.9032258064516129
 40
0.9032258064516129
 40
0.9354838709677419
 40
0.9354838709677419
 40
0.9354838709677419
 40
0.967741935483871
 40
0.967741935483871
 40
0.967741935483871
 40
1.0
 40
1.0
 40
1.0
 40
1.0
 10
-28.09736
 20
-3.0613
 30
0.0
 10
-28.44345
 20
-3.06243
 30
0.0
 10
-28.61321
 20
-3.24686
 30
0.0
 10
-28.89628
 20
-3.3674
 30
0.0
 10
-28.93313
 20
-3.3831
 30
0.0
 10
-28.95289
 20
-3.39553
 30
0.0
 10
-28.98564
 20
-3.41242
 30
0.0
 10
-29.01787
 20
-3.42904
 30
0.0
 10
-29.0494
 20
-3.43847
 30
0.0
 10
-29.08508
 20
-3.45301
 30
0.0
 10
-29.27043
 20
-3.52854
 30
0.0
 10
-29.4901
 20
-3.62536
 30
0.0
 10
-29.67058
 20
-3.69168
 30
0.0
 10
-29.802
 20
-3.73996
 30
0.0
 10
-30.1489
 20
-3.91645
 30
0.0
 10
-30.2501
 20
-3.93622
 30
0.0
 10
-30.36998
 20
-3.95964
 30
0.0
 10
-30.61958
 20
-3.9851
 30
0.0
 10
-30.72303
 20
-3.90562
 30
0.0
 10
-30.76227
 20
-3.87547
 30
0.0
 10
-30.86471
 20
-3.84468
 30
0.0
 10
-30.92274
 20
-3.83023
 30
0.0
 10
-30.9728
 20
-3.81778
 30
0.0
 10
-31.11804
 20
-3.8333
 30
0.0
 10
-31.16911
 20
-3.84518
 30
0.0
 10
-31.20891
 20
-3.85445
 30
0.0
 10
-31.24695
 20
-3.86168
 30
0.0
 10
-31.2857
 20
-3.87115
 30
0.0
 10
-31.32382
 20
-3.88046
 30
0.0
 10
-31.36499
 20
-3.90184
 30
0.0
 10
-31.3899
 20
-3.86531
 30
0.0
 10
-31.41635
 20
-3.78998
 30
0.0
 10
-31.2897
 20
-3.65771
 30
0.0
 10
-31.25977
 20
-3.62698
 30
0.0
 10
-31.19904
 20
-3.56461
 30
0.0
 10
-31.12391
 20
-3.50799
 30
0.0
 10
-30.99504
 20
-3.50822
 30
0.0
 10
-30.79477
 20
-3.50858
 30
0.0
 10
-30.73044
 20
-3.62174
 30
0.0
 10
-30.64404
 20
-3.73117
 30
0.0
 10
-30.60974
 20
-3.77461
 30
0.0
 10
-30.58615
 20
-3.785
 30
0.0
 10
-30.54222
 20
-3.81985
 30
0.0
 10
-30.50695
 20
-3.84782
 30
0.0
 10
-30.4485
 20
-3.85053
 30
0.0
 10
-30.39662
 20
-3.86012
 30
0.0
 10
-30.36574
 20
-3.86583
 30
0.0
 10
-30.35436
 20
-3.87876
 30
0.0
 10
-30.31876
 20
-3.87292
 30
0.0
 10
-30.13546
 20
-3.84288
 30
0.0
 10
-30.12756
 20
-3.8587
 30
0.0
 10
-29.94507
 20
-3.77029
 30
0.0
 10
-29.77189
 20
-3.68639
 30
0.0
 10
-29.59238
 20
-3.62017
 30
0.0
 10
-29.41197
 20
-3.54092
 30
0.0
 10
-29.23435
 20
-3.4629
 30
0.0
 10
-29.06157
 20
-3.39158
 30
0.0
 10
-28.88787
 20
-3.30871
 30
0.0
 10
-28.79724
 20
-3.26547
 30
0.0
 10
-28.71156
 20
-3.23525
 30
0.0
 10
-28.62514
 20
-3.19016
 30
0.0
 10
-28.5375
 20
-3.14444
 30
0.0
 10
-28.45807
 20
-3.10692
 30
0.0
 10
-28.36817
 20
-3.06597
 30
0.0
 10
-28.28082
 20
-3.02618
 30
0.0
 10
-28.17809
 20
-3.01003
 30
0.0
 10
-28.0874
 20
-2.97143
 30
0.0
 10
-28.02935
 20
-2.94672
 30
0.0
 10
-28.00609
 20
-2.93812
 30
0.0
 10
-27.93483
 20
-2.93211
 30
0.0
 10
-27.85382
 20
-2.92528
 30
0.0
 10
-27.83911
 20
-2.92047
 30
0.0
 10
-27.78083
 20
-2.95861
 30
0.0
 10
-27.71563
 20
-3.00128
 30
0.0
 10
-27.59612
 20
-3.05577
 30
0.0
 10
-27.492
 20
-3.05315
 30
0.0
 10
-27.4068
 20
-3.05101
 30
0.0
 10
-27.22243
 20
-2.9917
 30
0.0
 10
-27.1639
 20
-3.00284
 30
0.0
 10
-27.1639
 20
-3.00284
 30
0.0
 10
-27.16094
 20
-3.04476
 30
0.0
 10
-27.16094
 20
-3.04476
 30
0.0
 10
-27.18895
 20
-3.06238
 30
0.0
 10
-27.34332
 20
-3.11952
 30
0.0
 10
-27.38916
 20
-3.13714
 30
0.0
 10
-27.46726
 20
-3.16717
 30
0.0
 10
-27.54461
 20
-3.19343
 30
0.0
 10
-27.64051
 20
-3.20606
 30
0.0
 10
-27.76886
 20
-3.22297
 30
0.0
 10
-27.79154
 20
-3.24772
 30
0.0
 10
-27.88167
 20
-3.16597
 30
0.0
 10
-27.93901
 20
-3.11396
 30
0.0
 10
-27.98379
 20
-3.06093
 30
0.0
 10
-28.09736
 20
-3.0613
 30
0.0
  0
SPLINE
  5
83
330
1F
100
AcDbEntity
  8
Layer 1
 62
   250
370
    20
100
AcDbSpline
210
0.0
220
0.0
230
1.0
 70
    11
 71
     3
 72
    62
 73
    58
 74
     0
 42
0.0000000001
 43
0.0000000001
 40
0.0
 40
0.0
 40
0.0
 40
0.0
 40
0.0526315789473684
 40
0.0526315789473684
 40
0.0526315789473684
 40
0.1052631578947368
 40
0.1052631578947368
 40
0.1052631578947368
 40
0.1578947368421053
 40
0.1578947368421053
 40
0.1578947368421053
 40
0.2105263157894737
 40
0.2105263157894737
 40
0.2105263157894737
 40
0.2631578947368421
 40
0.2631578947368421
 40
0.2631578947368421
 40
0.3157894736842105
 40
0.3157894736842105
 40
0.3157894736842105
 40
0.3684210526315789
 40
0.3684210526315789
 40
0.3684210526315789
 40
0.4210526315789473
 40
0.4210526315789473
 40
0.4210526315789473
 40
0.4736842105263158
 40
0.4736842105263158
 40
0.4736842105263158
 40
0.5263157894736842
 40
0.5263157894736842
 40
0.5263157894736842
 40
0.5789473684210527
 40
0.5789473684210527
 40
0.5789473684210527
 40
0.631578947368421
 40
0.631578947368421
 40
0.631578947368421
 40
0.6842105263157894
 40
0.6842105263157894
 40
0.6842105263157894
 40
0.7368421052631579
 40
0.7368421052631579
 40
0.7368421052631579
 40
0.7894736842105263
 40
0.7894736842105263
 40
0.7894736842105263
 40
0.8421052631578947
 40
0.8421052631578947
 40
0.8421052631578947
 40
0.894736842105263
 40
0.894736842105263
 40
0.894736842105263
 40
0.9473684210526315
 40
0.9473684210526315
 40
0.9473684210526315
 40
1.0
 40
1.0
 40
1.0
 40
1.0
 10
-24.85099
 20
-4.70999
 30
0.0
 10
-24.94872
 20
-4.70738
 30
0.0
 10
-25.05854
 20
-4.63564
 30
0.0
 10
-25.11813
 20
-4.54991
 30
0.0
 10
-25.28636
 20
-4.30792
 30
0.0
 10
-25.19507
 20
-4.18257
 30
0.0
 10
-25.52846
 20
-3.8898
 30
0.0
 10
-25.54733
 20
-3.87323
 30
0.0
 10
-25.56352
 20
-3.85785
 30
0.0
 10
-25.58672
 20
-3.84158
 30
0.0
 10
-25.58672
 20
-3.84158
 30
0.0
 10
-25.99954
 20
-3.50327
 30
0.0
 10
-25.99954
 20
-3.50327
 30
0.0
 10
-26.02392
 20
-3.48594
 30
0.0
 10
-26.03305
 20
-3.47333
 30
0.0
 10
-26.05775
 20
-3.45501
 30
0.0
 10
-26.08021
 20
-3.43834
 30
0.0
 10
-26.09771
 20
-3.42386
 30
0.0
 10
-26.12056
 20
-3.40574
 30
0.0
 10
-26.19677
 20
-3.34528
 30
0.0
 10
-26.30479
 20
-3.30125
 30
0.0
 10
-26.39929
 20
-3.25285
 30
0.0
 10
-26.56944
 20
-3.16569
 30
0.0
 10
-26.71326
 20
-3.24084
 30
0.0
 10
-26.76205
 20
-3.24019
 30
0.0
 10
-26.79647
 20
-3.17945
 30
0.0
 10
-26.76693
 20
-3.16094
 30
0.0
 10
-26.6734
 20
-3.14051
 30
0.0
 10
-26.51544
 20
-3.10601
 30
0.0
 10
-26.43844
 20
-3.14408
 30
0.0
 10
-26.30013
 20
-3.19866
 30
0.0
 10
-26.12692
 20
-3.26699
 30
0.0
 10
-26.14587
 20
-3.251
 30
0.0
 10
-26.00107
 20
-3.35349
 30
0.0
 10
-25.87855
 20
-3.44021
 30
0.0
 10
-25.85879
 20
-3.45293
 30
0.0
 10
-25.74951
 20
-3.55597
 30
0.0
 10
-25.74951
 20
-3.55597
 30
0.0
 10
-25.6904
 20
-3.60895
 30
0.0
 10
-25.6904
 20
-3.60895
 30
0.0
 10
-25.6388
 20
-3.66078
 30
0.0
 10
-25.566
 20
-3.72756
 30
0.0
 10
-25.50797
 20
-3.76851
 30
0.0
 10
-25.28057
 20
-3.92895
 30
0.0
 10
-25.13494
 20
-3.91106
 30
0.0
 10
-25.06733
 20
-4.01149
 30
0.0
 10
-25.00457
 20
-4.10473
 30
0.0
 10
-25.00163
 20
-4.27055
 30
0.0
 10
-24.97413
 20
-4.37207
 30
0.0
 10
-24.97413
 20
-4.37207
 30
0.0
 10
-24.92399
 20
-4.55224
 30
0.0
 10
-24.92399
 20
-4.55224
 30
0.0
 10
-24.89201
 20
-4.64477
 30
0.0
 10
-24.91759
 20
-4.60987
 30
0.0
 10
-24.86196
 20
-4.6864
 30
0.0
 10
-24.85021
 20
-4.70256
 30
0.0
 10
-24.85418
 20
-4.68721
 30
0.0
 10
-24.85099
 20
-4.70999
 30
0.0
  0
SPLINE
  5
84
330
1F
100
AcDbEntity
  8
Layer 1
 62
   250
370
    20
100
AcDbSpline
210
0.0
220
0.0
230
1.0
 70
    11
 71
     3
 72
    50
 73
    46
 74
     0
 42
0.0000000001
 43
0.0000000001
 40
0.0
 40
0.0
 40
0.0
 40
0.0
 40
0.0666666666666667
 40
0.0666666666666667
 40
0.0666666666666667
 40
0.1333333333333333
 40
0.1333333333333333
 40
0.1333333333333333
 40
0.2
 40
0.2
 40
0.2
 40
0.2666666666666667
 40
0.2666666666666667
 40
0.2666666666666667
 40
0.3333333333333333
 40
0.3333333333333333
 40
0.3333333333333333
 40
0.4
 40
0.4
 40
0.4
 40
0.4666666666666667
 40
0.4666666666666667
 40
0.4666666666666667
 40
0.5333333333333333
 40
0.5333333333333333
 40
0.5333333333333333
 40
0.6
 40
0.6
 40
0.6
 40
0.6666666666666666
 40
0.6666666666666666
 40
0.6666666666666666
 40
0.7333333333333333
 40
0.7333333333333333
 40
0.7333333333333333
 40
0.8
 40
0.8
 40
0.8
 40
0.8666666666666667
 40
0.8666666666666667
 40
0.8666666666666667
 40
0.9333333333333333
 40
0.9333333333333333
 40
0.9333333333333333
 40
1.0
 40
1.0
 40
1.0
 40
1.0
 10
-24.61114
 20
-2.84071
 30
0.0
 10
-24.58932
 20
-2.87483
 30
0.0
 10
-24.59499
 20
-2.95588
 30
0.0
 10
-24.59447
 20
-3.00623
 30
0.0
 10
-24.59385
 20
-3.06758
 30
0.0
 10
-24.58515
 20
-3.11759
 30
0.0
 10
-24.58409
 20
-3.18547
 30
0.0
 10
-24.58409
 20
-3.18547
 30
0.0
 10
-24.60652
 20
-3.53828
 30
0.0
 10
-24.60652
 20
-3.53828
 30
0.0
 10
-24.60652
 20
-3.53828
 30
0.0
 10
-24.63363
 20
-3.69561
 30
0.0
 10
-24.63363
 20
-3.69561
 30
0.0
 10
-24.6371
 20
-3.72449
 30
0.0
 10
-24.64532
 20
-3.74253
 30
0.0
 10
-24.65224
 20
-3.77186
 30
0.0
 10
-24.65937
 20
-3.80208
 30
0.0
 10
-24.65993
 20
-3.82389
 30
0.0
 10
-24.66516
 20
-3.85487
 30
0.0
 10
-24.67076
 20
-3.88804
 30
0.0
 10
-24.75778
 20
-4.12746
 30
0.0
 10
-24.76786
 20
-4.13373
 30
0.0
 10
-24.80971
 20
-4.15975
 30
0.0
 10
-24.77215
 20
-4.0084
 30
0.0
 10
-24.76999
 20
-4.00073
 30
0.0
 10
-24.75549
 20
-3.94922
 30
0.0
 10
-24.75237
 20
-3.89306
 30
0.0
 10
-24.73916
 20
-3.84114
 30
0.0
 10
-24.73292
 20
-3.81661
 30
0.0
 10
-24.72974
 20
-3.78983
 30
0.0
 10
-24.72817
 20
-3.76257
 30
0.0
 10
-24.72552
 20
-3.71682
 30
0.0
 10
-24.71406
 20
-3.72126
 30
0.0
 10
-24.71157
 20
-3.68438
 30
0.0
 10
-24.70725
 20
-3.62028
 30
0.0
 10
-24.69671
 20
-3.56937
 30
0.0
 10
-24.6902
 20
-3.51497
 30
0.0
 10
-24.68455
 20
-3.46772
 30
0.0
 10
-24.67934
 20
-3.3863
 30
0.0
 10
-24.67878
 20
-3.34259
 30
0.0
 10
-24.67878
 20
-3.34259
 30
0.0
 10
-24.65221
 20
-2.98671
 30
0.0
 10
-24.65221
 20
-2.98671
 30
0.0
 10
-24.6346
 20
-2.92167
 30
0.0
 10
-24.65279
 20
-2.89256
 30
0.0
 10
-24.61114
 20
-2.84071
 30
0.0
  0
SPLINE
  5
85
330
1F
100
AcDbEntity
  8
Layer 1
 62
   250
370
    20
100
AcDbSpline
210
0.0
220
0.0
230
1.0
 70
    11
 71
     3
 72
    62
 73
    58
 74
     0
 42
0.0000000001
 43
0.0000000001
 40
0.0
 40
0.0
 40
0.0
 40
0.0
 40
0.0526315789473684
 40
0.0526315789473684
 40
0.0526315789473684
 40
0.1052631578947368
 40
0.1052631578947368
 40
0.1052631578947368
 40
0.1578947368421053
 40
0.1578947368421053
 40
0.1578947368421053
 40
0.2105263157894737
 40
0.2105263157894737
 40
0.2105263157894737
 40
0.2631578947368421
 40
0.2631578947368421
 40
0.2631578947368421
 40
0.3157894736842105
 40
0.3157894736842105
 40
0.3157894736842105
 40
0.3684210526315789
 40
0.3684210526315789
 40
0.3684210526315789
 40
0.4210526315789473
 40
0.4210526315789473
 40
0.4210526315789473
 40
0.4736842105263158
 40
0.4736842105263158
 40
0.4736842105263158
 40
0.5263157894736842
 40
0.5263157894736842
 40
0.5263157894736842
 40
0.5789473684210527
 40
0.5789473684210527
 40
0.5789473684210527
 40
0.631578947368421
 40
0.631578947368421
 40
0.631578947368421
 40
0.6842105263157894
 40
0.6842105263157894
 40
0.6842105263157894
 40
0.7368421052631579
 40
0.7368421052631579
 40
0.7368421052631579
 40
0.7894736842105263
 40
0.7894736842105263
 40
0.7894736842105263
 40
0.8421052631578947
 40
0.8421052631578947
 40
0.8421052631578947
 40
0.894736842105263
 40
0.894736842105263
 40
0.894736842105263
 40
0.9473684210526315
 40
0.9473684210526315
 40
0.9473684210526315
 40
1.0
 40
1.0
 40
1.0
 40
1.0
 10
-28.27242
 20
-3.27846
 30
0.0
 10
-28.44626
 20
-3.30752
 30
0.0
 10
-28.58799
 20
-3.37718
 30
0.0
 10
-28.7336
 20
-3.44639
 30
0.0
 10
-28.80497
 20
-3.48032
 30
0.0
 10
-28.88476
 20
-3.50647
 30
0.0
 10
-28.95492
 20
-3.5387
 30
0.0
 10
-29.02409
 20
-3.57047
 30
0.0
 10
-29.10557
 20
-3.60953
 30
0.0
 10
-29.17696
 20
-3.63614
 30
0.0
 10
-29.32818
 20
-3.69249
 30
0.0
 10
-29.46416
 20
-3.7718
 30
0.0
 10
-29.60794
 20
-3.83275
 30
0.0
 10
-29.76
 20
-3.89721
 30
0.0
 10
-29.8897
 20
-3.96422
 30
0.0
 10
-30.05235
 20
-4.02164
 30
0.0
 10
-30.21932
 20
-4.0806
 30
0.0
 10
-30.39457
 20
-4.1288
 30
0.0
 10
-30.57489
 20
-4.12596
 30
0.0
 10
-30.71882
 20
-4.1237
 30
0.0
 10
-30.83148
 20
-4.33397
 30
0.0
 10
-30.96702
 20
-4.36881
 30
0.0
 10
-31.05953
 20
-4.39259
 30
0.0
 10
-31.15017
 20
-4.39223
 30
0.0
 10
-31.23415
 20
-4.35493
 30
0.0
 10
-31.31384
 20
-4.31955
 30
0.0
 10
-31.34396
 20
-4.26661
 30
0.0
 10
-31.38945
 20
-4.19637
 30
0.0
 10
-31.42399
 20
-4.14301
 30
0.0
 10
-31.50026
 20
-4.02651
 30
0.0
 10
-31.39584
 20
-3.99529
 30
0.0
 10
-31.29698
 20
-3.96573
 30
0.0
 10
-31.09893
 20
-3.91727
 30
0.0
 10
-30.98937
 20
-3.92588
 30
0.0
 10
-30.90011
 20
-3.93289
 30
0.0
 10
-30.81408
 20
-3.94228
 30
0.0
 10
-30.72958
 20
-3.97956
 30
0.0
 10
-30.57779
 20
-4.04653
 30
0.0
 10
-30.50378
 20
-4.04596
 30
0.0
 10
-30.33128
 20
-4.01079
 30
0.0
 10
-29.93132
 20
-3.92924
 30
0.0
 10
-29.33951
 20
-3.6637
 30
0.0
 10
-28.9521
 20
-3.49623
 30
0.0
 10
-28.88099
 20
-3.46549
 30
0.0
 10
-28.80322
 20
-3.436
 30
0.0
 10
-28.73251
 20
-3.40187
 30
0.0
 10
-28.6184
 20
-3.34679
 30
0.0
 10
-28.03497
 20
-3.05726
 30
0.0
 10
-27.90897
 20
-3.19337
 30
0.0
 10
-27.89264
 20
-3.21101
 30
0.0
 10
-27.87089
 20
-3.28568
 30
0.0
 10
-27.88361
 20
-3.31503
 30
0.0
 10
-27.89381
 20
-3.33856
 30
0.0
 10
-28.071
 20
-3.42673
 30
0.0
 10
-28.09163
 20
-3.4092
 30
0.0
 10
-28.11211
 20
-3.39182
 30
0.0
 10
-28.11041
 20
-3.25138
 30
0.0
 10
-28.27242
 20
-3.27846
 30
0.0
  0
SPLINE
  5
86
330
1F
100
AcDbEntity
  8
Layer 1
 62
   250
370
    20
100
AcDbSpline
210
0.0
220
0.0
230
1.0
 70
    11
 71
     3
 72
    92
 73
    88
 74
     0
 42
0.0000000001
 43
0.0000000001
 40
0.0
 40
0.0
 40
0.0
 40
0.0
 40
0.0344827586206897
 40
0.0344827586206897
 40
0.0344827586206897
 40
0.0689655172413793
 40
0.0689655172413793
 40
0.0689655172413793
 40
0.103448275862069
 40
0.103448275862069
 40
0.103448275862069
 40
0.1379310344827586
 40
0.1379310344827586
 40
0.1379310344827586
 40
0.1724137931034483
 40
0.1724137931034483
 40
0.1724137931034483
 40
0.2068965517241379
 40
0.2068965517241379
 40
0.2068965517241379
 40
0.2413793103448276
 40
0.2413793103448276
 40
0.2413793103448276
 40
0.2758620689655172
 40
0.2758620689655172
 40
0.2758620689655172
 40
0.3103448275862069
 40
0.3103448275862069
 40
0.3103448275862069
 40
0.3448275862068966
 40
0.3448275862068966
 40
0.3448275862068966
 40
0.3793103448275862
 40
0.3793103448275862
 40
0.3793103448275862
 40
0.4137931034482759
 40
0.4137931034482759
 40
0.4137931034482759
 40
0.4482758620689655
 40
0.4482758620689655
 40
0.4482758620689655
 40
0.4827586206896551
 40
0.4827586206896551
 40
0.4827586206896551
 40
0.5172413793103449
 40
0.5172413793103449
 40
0.5172413793103449
 40
0.5517241379310345
 40
0.5517241379310345
 40
0.5517241379310345
 40
0.5862068965517241
 40
0.5862068965517241
 40
0.5862068965517241
 40
0.6206896551724138
 40
0.6206896551724138
 40
0.6206896551724138
 40
0.6551724137931034
 40
0.6551724137931034
 40
0.6551724137931034
 40
0.6896551724137931
 40
0.6896551724137931
 40
0.6896551724137931
 40
0.7241379310344828
 40
0.7241379310344828
 40
0.7241379310344828
 40
0.7586206896551724
 40
0.7586206896551724
 40
0.7586206896551724
 40
0.7931034482758621
 40
0.7931034482758621
 40
0.7931034482758621
 40
0.8275862068965517
 40
0.8275862068965517
 40
0.8275862068965517
 40
0.8620689655172413
 40
0.8620689655172413
 40
0.8620689655172413
 40
0.896551724137931
 40
0.896551724137931
 40
0.896551724137931
 40
0.9310344827586207
 40
0.9310344827586207
 40
0.9310344827586207
 40
0.9655172413793103
 40
0.9655172413793103
 40
0.9655172413793103
 40
1.0
 40
1.0
 40
1.0
 40
1.0
 10
-31.04644
 20
-4.47288
 30
0.0
 10
-30.98108
 20
-4.44718
 30
0.0
 10
-30.92574
 20
-4.47448
 30
0.0
 10
-30.77743
 20
-4.43964
 30
0.0
 10
-30.57749
 20
-4.39267
 30
0.0
 10
-30.60299
 20
-4.38963
 30
0.0
 10
-30.42916
 20
-4.32864
 30
0.0
 10
-30.25091
 20
-4.2661
 30
0.0
 10
-29.97559
 20
-4.23705
 30
0.0
 10
-29.78518
 20
-4.1995
 30
0.0
 10
-29.69836
 20
-4.18237
 30
0.0
 10
-29.60526
 20
-4.17301
 30
0.0
 10
-29.5158
 20
-4.16021
 30
0.0
 10
-29.42875
 20
-4.14776
 30
0.0
 10
-29.33067
 20
-4.13236
 30
0.0
 10
-29.24113
 20
-4.1261
 30
0.0
 10
-29.1939
 20
-4.1228
 30
0.0
 10
-29.1482
 20
-4.11848
 30
0.0
 10
-29.10132
 20
-4.11463
 30
0.0
 10
-29.05089
 20
-4.11049
 30
0.0
 10
-29.00609
 20
-4.11885
 30
0.0
 10
-28.95798
 20
-4.11313
 30
0.0
 10
-28.6924
 20
-4.08149
 30
0.0
 10
-28.69539
 20
-4.08688
 30
0.0
 10
-28.46565
 20
-3.98851
 30
0.0
 10
-28.43073
 20
-3.97355
 30
0.0
 10
-28.39334
 20
-3.95811
 30
0.0
 10
-28.36143
 20
-3.94147
 30
0.0
 10
-28.36143
 20
-3.94147
 30
0.0
 10
-28.17626
 20
-3.81851
 30
0.0
 10
-28.17626
 20
-3.81851
 30
0.0
 10
-28.02391
 20
-3.71205
 30
0.0
 10
-28.07257
 20
-3.73937
 30
0.0
 10
-27.87889
 20
-3.65066
 30
0.0
 10
-27.81674
 20
-3.62221
 30
0.0
 10
-27.72991
 20
-3.57689
 30
0.0
 10
-27.66091
 20
-3.56046
 30
0.0
 10
-27.53729
 20
-3.53102
 30
0.0
 10
-27.55767
 20
-3.54651
 30
0.0
 10
-27.45533
 20
-3.63067
 30
0.0
 10
-27.3445
 20
-3.72181
 30
0.0
 10
-27.28374
 20
-3.73087
 30
0.0
 10
-27.26196
 20
-3.7484
 30
0.0
 10
-27.25712
 20
-3.79777
 30
0.0
 10
-27.27708
 20
-3.80126
 30
0.0
 10
-27.31769
 20
-3.84185
 30
0.0
 10
-27.34331
 20
-3.86746
 30
0.0
 10
-27.37387
 20
-3.88939
 30
0.0
 10
-27.40362
 20
-3.91281
 30
0.0
 10
-27.56886
 20
-4.0429
 30
0.0
 10
-27.61166
 20
-4.05063
 30
0.0
 10
-27.79641
 20
-4.14749
 30
0.0
 10
-27.84743
 20
-4.17424
 30
0.0
 10
-27.96036
 20
-4.22416
 30
0.0
 10
-28.02165
 20
-4.23667
 30
0.0
 10
-28.07636
 20
-4.24784
 30
0.0
 10
-28.10261
 20
-4.24969
 30
0.0
 10
-28.14011
 20
-4.22023
 30
0.0
 10
-28.24747
 20
-4.13592
 30
0.0
 10
-28.31535
 20
-3.98809
 30
0.0
 10
-28.41647
 20
-4.03759
 30
0.0
 10
-28.50021
 20
-4.07858
 30
0.0
 10
-28.52475
 20
-4.09648
 30
0.0
 10
-28.62873
 20
-4.13919
 30
0.0
 10
-28.66814
 20
-4.15537
 30
0.0
 10
-28.70859
 20
-4.16331
 30
0.0
 10
-28.75012
 20
-4.17518
 30
0.0
 10
-28.95986
 20
-4.23515
 30
0.0
 10
-29.06859
 20
-4.25165
 30
0.0
 10
-29.28587
 20
-4.26302
 30
0.0
 10
-29.32712
 20
-4.26518
 30
0.0
 10
-29.37764
 20
-4.27647
 30
0.0
 10
-29.42549
 20
-4.27858
 30
0.0
 10
-29.52897
 20
-4.28313
 30
0.0
 10
-29.62918
 20
-4.28313
 30
0.0
 10
-29.7342
 20
-4.28574
 30
0.0
 10
-29.82871
 20
-4.28808
 30
0.0
 10
-29.93178
 20
-4.29703
 30
0.0
 10
-30.03103
 20
-4.29973
 30
0.0
 10
-30.39591
 20
-4.30966
 30
0.0
 10
-30.5064
 20
-4.41656
 30
0.0
 10
-30.79093
 20
-4.48248
 30
0.0
 10
-30.92368
 20
-4.51324
 30
0.0
 10
-30.87286
 20
-4.5095
 30
0.0
 10
-31.00102
 20
-4.50771
 30
0.0
 10
-31.03564
 20
-4.50723
 30
0.0
 10
-31.04602
 20
-4.50592
 30
0.0
 10
-31.04644
 20
-4.47288
 30
0.0
  0
SPLINE
  5
87
330
1F
100
AcDbEntity
  8
Layer 1
 62
   250
370
    20
100
AcDbSpline
210
0.0
220
0.0
230
1.0
 70
    11
 71
     3
 72
    38
 73
    34
 74
     0
 42
0.0000000001
 43
0.0000000001
 40
0.0
 40
0.0
 40
0.0
 40
0.0
 40
0.0909090909090909
 40
0.0909090909090909
 40
0.0909090909090909
 40
0.1818181818181818
 40
0.1818181818181818
 40
0.1818181818181818
 40
0.2727272727272727
 40
0.2727272727272727
 40
0.2727272727272727
 40
0.3636363636363636
 40
0.3636363636363636
 40
0.3636363636363636
 40
0.4545454545454546
 40
0.4545454545454546
 40
0.4545454545454546
 40
0.5454545454545454
 40
0.5454545454545454
 40
0.5454545454545454
 40
0.6363636363636364
 40
0.6363636363636364
 40
0.6363636363636364
 40
0.7272727272727273
 40
0.7272727272727273
 40
0.7272727272727273
 40
0.8181818181818182
 40
0.8181818181818182
 40
0.8181818181818182
 40
0.9090909090909092
 40
0.9090909090909092
 40
0.9090909090909092
 40
1.0
 40
1.0
 40
1.0
 40
1.0
 10
-28.82535
 20
-4.6364
 30
0.0
 10
-28.82476
 20
-4.58516
 30
0.0
 10
-28.7203
 20
-4.52994
 30
0.0
 10
-28.67189
 20
-4.49982
 30
0.0
 10
-28.50939
 20
-4.39872
 30
0.0
 10
-28.42283
 20
-4.40067
 30
0.0
 10
-28.2295
 20
-4.35921
 30
0.0
 10
-28.12726
 20
-4.33728
 30
0.0
 10
-27.72876
 20
-4.24396
 30
0.0
 10
-27.64984
 20
-4.20471
 30
0.0
 10
-27.59756
 20
-4.1787
 30
0.0
 10
-27.61116
 20
-4.16835
 30
0.0
 10
-27.58114
 20
-4.12765
 30
0.0
 10
-27.53244
 20
-4.06162
 30
0.0
 10
-27.30653
 20
-3.9461
 30
0.0
 10
-27.18196
 20
-3.93491
 30
0.0
 10
-27.18458
 20
-3.97583
 30
0.0
 10
-27.21325
 20
-4.00962
 30
0.0
 10
-27.23318
 20
-4.03284
 30
0.0
 10
-27.30908
 20
-4.12128
 30
0.0
 10
-27.26701
 20
-4.09225
 30
0.0
 10
-27.37697
 20
-4.18048
 30
0.0
 10
-27.4702
 20
-4.25529
 30
0.0
 10
-27.44087
 20
-4.24077
 30
0.0
 10
-27.55214
 20
-4.29661
 30
0.0
 10
-27.5841
 20
-4.31265
 30
0.0
 10
-27.61916
 20
-4.33454
 30
0.0
 10
-27.64801
 20
-4.34665
 30
0.0
 10
-27.87964
 20
-4.44386
 30
0.0
 10
-28.08034
 20
-4.48628
 30
0.0
 10
-28.32504
 20
-4.54953
 30
0.0
 10
-28.39458
 20
-4.56751
 30
0.0
 10
-28.76947
 20
-4.64686
 30
0.0
 10
-28.82535
 20
-4.6364
 30
0.0
  0
SPLINE
  5
88
330
1F
100
AcDbEntity
  8
Layer 1
 62
   250
370
    20
100
AcDbSpline
210
0.0
220
0.0
230
1.0
 70
    11
 71
     3
 72
    29
 73
    25
 74
     0
 42
0.0000000001
 43
0.0000000001
 40
0.0
 40
0.0
 40
0.0
 40
0.0
 40
0.125
 40
0.125
 40
0.125
 40
0.25
 40
0.25
 40
0.25
 40
0.375
 40
0.375
 40
0.375
 40
0.5
 40
0.5
 40
0.5
 40
0.625
 40
0.625
 40
0.625
 40
0.75
 40
0.75
 40
0.75
 40
0.875
 40
0.875
 40
0.875
 40
1.0
 40
1.0
 40
1.0
 40
1.0
 10
-27.49257
 20
-4.40342
 30
0.0
 10
-27.49149
 20
-4.37107
 30
0.0
 10
-27.48098
 20
-4.37247
 30
0.0
 10
-27.4335
 20
-4.33135
 30
0.0
 10
-27.41098
 20
-4.31184
 30
0.0
 10
-27.38481
 20
-4.29669
 30
0.0
 10
-27.3601
 20
-4.27587
 30
0.0
 10
-27.26776
 20
-4.19805
 30
0.0
 10
-27.20854
 20
-4.09465
 30
0.0
 10
-27.08432
 20
-4.0302
 30
0.0
 10
-27.03696
 20
-4.00564
 30
0.0
 10
-26.95342
 20
-3.95387
 30
0.0
 10
-26.88716
 20
-3.96505
 30
0.0
 10
-26.88956
 20
-3.98818
 30
0.0
 10
-26.98874
 20
-4.07966
 30
0.0
 10
-27.0109
 20
-4.09811
 30
0.0
 10
-27.03498
 20
-4.11817
 30
0.0
 10
-27.0539
 20
-4.14036
 30
0.0
 10
-27.07786
 20
-4.16009
 30
0.0
 10
-27.20367
 20
-4.26374
 30
0.0
 10
-27.16782
 20
-4.24029
 30
0.0
 10
-27.30307
 20
-4.32724
 30
0.0
 10
-27.33592
 20
-4.34835
 30
0.0
 10
-27.44483
 20
-4.4064
 30
0.0
 10
-27.49257
 20
-4.40342
 30
0.0
  0
SPLINE
  5
89
330
1F
100
AcDbEntity
  8
Layer 1
 62
   250
370
    20
100
AcDbSpline
210
0.0
220
0.0
230
1.0
 70
    11
 71
     3
 72
    23
 73
    19
 74
     0
 42
0.0000000001
 43
0.0000000001
 40
0.0
 40
0.0
 40
0.0
 40
0.0
 40
0.1666666666666667
 40
0.1666666666666667
 40
0.1666666666666667
 40
0.3333333333333333
 40
0.3333333333333333
 40
0.3333333333333333
 40
0.5
 40
0.5
 40
0.5
 40
0.6666666666666666
 40
0.6666666666666666
 40
0.6666666666666666
 40
0.8333333333333333
 40
0.8333333333333333
 40
0.8333333333333333
 40
1.0
 40
1.0
 40
1.0
 40
1.0
 10
-27.15644
 20
-4.45777
 30
0.0
 10
-27.15451
 20
-4.4127
 30
0.0
 10
-27.06359
 20
-4.39443
 30
0.0
 10
-27.02847
 20
-4.27699
 30
0.0
 10
-27.01726
 20
-4.2395
 30
0.0
 10
-27.00837
 20
-4.23512
 30
0.0
 10
-26.9823
 20
-4.21638
 30
0.0
 10
-26.92849
 20
-4.17771
 30
0.0
 10
-26.78491
 20
-4.08252
 30
0.0
 10
-26.69646
 20
-4.08343
 30
0.0
 10
-26.70009
 20
-4.15103
 30
0.0
 10
-26.77475
 20
-4.2309
 30
0.0
 10
-26.81989
 20
-4.27232
 30
0.0
 10
-26.83837
 20
-4.28928
 30
0.0
 10
-26.85241
 20
-4.30921
 30
0.0
 10
-26.87334
 20
-4.32536
 30
0.0
 10
-26.90599
 20
-4.35055
 30
0.0
 10
-27.10583
 20
-4.48305
 30
0.0
 10
-27.15644
 20
-4.45777
 30
0.0
  0
SPLINE
  5
8A
330
1F
100
AcDbEntity
  8
Layer 1
 62
   250
370
    20
100
AcDbSpline
210
0.0
220
0.0
230
1.0
 70
    11
 71
     3
 72
    50
 73
    46
 74
     0
 42
0.0000000001
 43
0.0000000001
 40
0.0
 40
0.0
 40
0.0
 40
0.0
 40
0.0666666666666667
 40
0.0666666666666667
 40
0.0666666666666667
 40
0.1333333333333333
 40
0.1333333333333333
 40
0.1333333333333333
 40
0.2
 40
0.2
 40
0.2
 40
0.2666666666666667
 40
0.2666666666666667
 40
0.2666666666666667
 40
0.3333333333333333
 40
0.3333333333333333
 40
0.3333333333333333
 40
0.4
 40
0.4
 40
0.4
 40
0.4666666666666667
 40
0.4666666666666667
 40
0.4666666666666667
 40
0.5333333333333333
 40
0.5333333333333333
 40
0.5333333333333333
 40
0.6
 40
0.6
 40
0.6
 40
0.6666666666666666
 40
0.6666666666666666
 40
0.6666666666666666
 40
0.7333333333333333
 40
0.7333333333333333
 40
0.7333333333333333
 40
0.8
 40
0.8
 40
0.8
 40
0.8666666666666667
 40
0.8666666666666667
 40
0.8666666666666667
 40
0.9333333333333333
 40
0.9333333333333333
 40
0.9333333333333333
 40
1.0
 40
1.0
 40
1.0
 40
1.0
 10
-26.47602
 20
-4.31666
 30
0.0
 10
-26.4331
 20
-4.34886
 30
0.0
 10
-26.28822
 20
-4.36488
 30
0.0
 10
-26.17918
 20
-4.41701
 30
0.0
 10
-26.1708
 20
-4.42102
 30
0.0
 10
-26.1686
 20
-4.42197
 30
0.0
 10
-26.1607
 20
-4.42693
 30
0.0
 10
-26.1607
 20
-4.42693
 30
0.0
 10
-26.14238
 20
-4.44095
 30
0.0
 10
-26.14238
 20
-4.44095
 30
0.0
 10
-26.16273
 20
-4.47396
 30
0.0
 10
-26.32018
 20
-4.57331
 30
0.0
 10
-26.3675
 20
-4.60722
 30
0.0
 10
-26.41752
 20
-4.64307
 30
0.0
 10
-26.52626
 20
-4.71121
 30
0.0
 10
-26.58784
 20
-4.72949
 30
0.0
 10
-26.60534
 20
-4.73468
 30
0.0
 10
-26.61705
 20
-4.73623
 30
0.0
 10
-26.63035
 20
-4.7268
 30
0.0
 10
-26.62403
 20
-4.6973
 30
0.0
 10
-26.63287
 20
-4.72666
 30
0.0
 10
-26.59516
 20
-4.68759
 30
0.0
 10
-26.58372
 20
-4.67573
 30
0.0
 10
-26.57154
 20
-4.66223
 30
0.0
 10
-26.5624
 20
-4.64833
 30
0.0
 10
-26.58566
 20
-4.58732
 30
0.0
 10
-26.69099
 20
-4.51776
 30
0.0
 10
-26.78962
 20
-4.53343
 30
0.0
 10
-26.8332
 20
-4.54036
 30
0.0
 10
-26.87656
 20
-4.56316
 30
0.0
 10
-26.91613
 20
-4.58
 30
0.0
 10
-26.96499
 20
-4.6008
 30
0.0
 10
-26.99243
 20
-4.62543
 30
0.0
 10
-27.05681
 20
-4.62225
 30
0.0
 10
-27.04483
 20
-4.56304
 30
0.0
 10
-26.89351
 20
-4.49171
 30
0.0
 10
-26.83949
 20
-4.46538
 30
0.0
 10
-26.77272
 20
-4.43285
 30
0.0
 10
-26.80341
 20
-4.38956
 30
0.0
 10
-26.63431
 20
-4.29549
 30
0.0
 10
-26.58984
 20
-4.27075
 30
0.0
 10
-26.50698
 20
-4.23135
 30
0.0
 10
-26.44529
 20
-4.23444
 30
0.0
 10
-26.46154
 20
-4.25868
 30
0.0
 10
-26.47459
 20
-4.27764
 30
0.0
 10
-26.47602
 20
-4.31666
 30
0.0
  0
SPLINE
  5
8B
330
1F
100
AcDbEntity
  8
Layer 1
 62
   250
370
    20
100
AcDbSpline
210
0.0
220
0.0
230
1.0
 70
    11
 71
     3
 72
    68
 73
    64
 74
     0
 42
0.0000000001
 43
0.0000000001
 40
0.0
 40
0.0
 40
0.0
 40
0.0
 40
0.0476190476190476
 40
0.0476190476190476
 40
0.0476190476190476
 40
0.0952380952380952
 40
0.0952380952380952
 40
0.0952380952380952
 40
0.1428571428571428
 40
0.1428571428571428
 40
0.1428571428571428
 40
0.1904761904761905
 40
0.1904761904761905
 40
0.1904761904761905
 40
0.2380952380952381
 40
0.2380952380952381
 40
0.2380952380952381
 40
0.2857142857142857
 40
0.2857142857142857
 40
0.2857142857142857
 40
0.3333333333333333
 40
0.3333333333333333
 40
0.3333333333333333
 40
0.3809523809523809
 40
0.3809523809523809
 40
0.3809523809523809
 40
0.4285714285714285
 40
0.4285714285714285
 40
0.4285714285714285
 40
0.4761904761904762
 40
0.4761904761904762
 40
0.4761904761904762
 40
0.5238095238095237
 40
0.5238095238095237
 40
0.5238095238095237
 40
0.5714285714285714
 40
0.5714285714285714
 40
0.5714285714285714
 40
0.6190476190476191
 40
0.6190476190476191
 40
0.6190476190476191
 40
0.6666666666666666
 40
0.6666666666666666
 40
0.6666666666666666
 40
0.7142857142857142
 40
0.7142857142857142
 40
0.7142857142857142
 40
0.7619047619047619
 40
0.7619047619047619
 40
0.7619047619047619
 40
0.8095238095238095
 40
0.8095238095238095
 40
0.8095238095238095
 40
0.8571428571428571
 40
0.8571428571428571
 40
0.8571428571428571
 40
0.9047619047619047
 40
0.9047619047619047
 40
0.9047619047619047
 40
0.9523809523809523
 40
0.9523809523809523
 40
0.9523809523809523
 40
1.0
 40
1.0
 40
1.0
 40
1.0
 10
-22.75321
 20
-5.85
 30
0.0
 10
-23.07206
 20
-5.84896
 30
0.0
 10
-22.91869
 20
-5.8679
 30
0.0
 10
-23.208
 20
-5.78419
 30
0.0
 10
-23.208
 20
-5.78419
 30
0.0
 10
-23.6071
 20
-5.65052
 30
0.0
 10
-23.6071
 20
-5.65052
 30
0.0
 10
-23.67058
 20
-5.62721
 30
0.0
 10
-23.73747
 20
-5.60935
 30
0.0
 10
-23.80554
 20
-5.58546
 30
0.0
 10
-23.80554
 20
-5.58546
 30
0.0
 10
-24.3913
 20
-5.37542
 30
0.0
 10
-24.3913
 20
-5.37542
 30
0.0
 10
-24.65371
 20
-5.28417
 30
0.0
 10
-24.91703
 20
-5.19286
 30
0.0
 10
-25.17138
 20
-5.09637
 30
0.0
 10
-25.25464
 20
-5.06479
 30
0.0
 10
-25.61025
 20
-4.94481
 30
0.0
 10
-25.65266
 20
-4.92194
 30
0.0
 10
-25.68853
 20
-4.9026
 30
0.0
 10
-25.70027
 20
-4.88454
 30
0.0
 10
-25.69917
 20
-4.83331
 30
0.0
 10
-25.69731
 20
-4.74719
 30
0.0
 10
-25.66222
 20
-4.68739
 30
0.0
 10
-25.62027
 20
-4.64241
 30
0.0
 10
-25.5614
 20
-4.57929
 30
0.0
 10
-25.5453
 20
-4.58327
 30
0.0
 10
-25.42858
 20
-4.57046
 30
0.0
 10
-25.38319
 20
-4.56548
 30
0.0
 10
-25.34823
 20
-4.54233
 30
0.0
 10
-25.33812
 20
-4.58623
 30
0.0
 10
-25.32669
 20
-4.63588
 30
0.0
 10
-25.32247
 20
-4.64626
 30
0.0
 10
-25.30382
 20
-4.68591
 30
0.0
 10
-25.28456
 20
-4.72687
 30
0.0
 10
-25.22195
 20
-4.8045
 30
0.0
 10
-25.18989
 20
-4.83471
 30
0.0
 10
-25.12744
 20
-4.89358
 30
0.0
 10
-24.73352
 20
-5.03118
 30
0.0
 10
-24.63405
 20
-5.07408
 30
0.0
 10
-24.57041
 20
-5.10153
 30
0.0
 10
-24.51008
 20
-5.12388
 30
0.0
 10
-24.44632
 20
-5.14963
 30
0.0
 10
-24.44632
 20
-5.14963
 30
0.0
 10
-24.1632
 20
-5.26467
 30
0.0
 10
-24.1632
 20
-5.26467
 30
0.0
 10
-24.12907
 20
-5.27968
 30
0.0
 10
-24.10417
 20
-5.29614
 30
0.0
 10
-24.07173
 20
-5.30771
 30
0.0
 10
-24.05469
 20
-5.31378
 30
0.0
 10
-24.04033
 20
-5.31487
 30
0.0
 10
-24.02329
 20
-5.32082
 30
0.0
 10
-24.02329
 20
-5.32082
 30
0.0
 10
-23.50388
 20
-5.53597
 30
0.0
 10
-23.50388
 20
-5.53597
 30
0.0
 10
-23.46555
 20
-5.55422
 30
0.0
 10
-23.35417
 20
-5.60436
 30
0.0
 10
-23.31782
 20
-5.61302
 30
0.0
 10
-23.27065
 20
-5.62427
 30
0.0
 10
-22.93546
 20
-5.77677
 30
0.0
 10
-22.79807
 20
-5.82177
 30
0.0
 10
-22.74561
 20
-5.83895
 30
0.0
 10
-22.76085
 20
-5.83354
 30
0.0
 10
-22.75321
 20
-5.85
 30
0.0
  0
SPLINE
  5
8C
330
1F
100
AcDbEntity
  8
Layer 1
 62
   250
370
    20
100
AcDbSpline
210
0.0
220
0.0
230
1.0
 70
    11
 71
     3
 72
    77
 73
    73
 74
     0
 42
0.0000000001
 43
0.0000000001
 40
0.0
 40
0.0
 40
0.0
 40
0.0
 40
0.0416666666666667
 40
0.0416666666666667
 40
0.0416666666666667
 40
0.0833333333333333
 40
0.0833333333333333
 40
0.0833333333333333
 40
0.125
 40
0.125
 40
0.125
 40
0.1666666666666667
 40
0.1666666666666667
 40
0.1666666666666667
 40
0.2083333333333333
 40
0.2083333333333333
 40
0.2083333333333333
 40
0.25
 40
0.25
 40
0.25
 40
0.2916666666666666
 40
0.2916666666666666
 40
0.2916666666666666
 40
0.3333333333333333
 40
0.3333333333333333
 40
0.3333333333333333
 40
0.375
 40
0.375
 40
0.375
 40
0.4166666666666666
 40
0.4166666666666666
 40
0.4166666666666666
 40
0.4583333333333333
 40
0.4583333333333333
 40
0.4583333333333333
 40
0.5
 40
0.5
 40
0.5
 40
0.5416666666666666
 40
0.5416666666666666
 40
0.5416666666666666
 40
0.5833333333333333
 40
0.5833333333333333
 40
0.5833333333333333
 40
0.625
 40
0.625
 40
0.625
 40
0.6666666666666666
 40
0.6666666666666666
 40
0.6666666666666666
 40
0.7083333333333333
 40
0.7083333333333333
 40
0.7083333333333333
 40
0.75
 40
0.75
 40
0.75
 40
0.7916666666666666
 40
0.7916666666666666
 40
0.7916666666666666
 40
0.8333333333333333
 40
0.8333333333333333
 40
0.8333333333333333
 40
0.875
 40
0.875
 40
0.875
 40
0.9166666666666666
 40
0.9166666666666666
 40
0.9166666666666666
 40
0.9583333333333333
 40
0.9583333333333333
 40
0.9583333333333333
 40
1.0
 40
1.0
 40
1.0
 40
1.0
 10
-30.87737
 20
-7.69154
 30
0.0
 10
-30.87737
 20
-7.69154
 30
0.0
 10
-30.82401
 20
-7.44817
 30
0.0
 10
-30.82401
 20
-7.44817
 30
0.0
 10
-30.81262
 20
-7.42766
 30
0.0
 10
-30.8048
 20
-7.34748
 30
0.0
 10
-30.78753
 20
-7.29976
 30
0.0
 10
-30.74396
 20
-7.17936
 30
0.0
 10
-30.71396
 20
-7.04883
 30
0.0
 10
-30.66807
 20
-6.92626
 30
0.0
 10
-30.62218
 20
-6.8037
 30
0.0
 10
-30.57528
 20
-6.69731
 30
0.0
 10
-30.52026
 20
-6.58076
 30
0.0
 10
-30.4671
 20
-6.46816
 30
0.0
 10
-30.42635
 20
-6.4133
 30
0.0
 10
-30.38978
 20
-6.34125
 30
0.0
 10
-30.38978
 20
-6.34125
 30
0.0
 10
-30.14176
 20
-5.96689
 30
0.0
 10
-30.14176
 20
-5.96689
 30
0.0
 10
-30.10983
 20
-5.9194
 30
0.0
 10
-30.07934
 20
-5.86323
 30
0.0
 10
-30.04976
 20
-5.81224
 30
0.0
 10
-29.9276
 20
-5.60167
 30
0.0
 10
-29.81511
 20
-5.36107
 30
0.0
 10
-29.74582
 20
-5.12433
 30
0.0
 10
-29.74582
 20
-5.12433
 30
0.0
 10
-29.70895
 20
-4.97722
 30
0.0
 10
-29.70895
 20
-4.97722
 30
0.0
 10
-29.70419
 20
-4.94865
 30
0.0
 10
-29.7108
 20
-4.94014
 30
0.0
 10
-29.69474
 20
-4.92252
 30
0.0
 10
-29.63024
 20
-4.94896
 30
0.0
 10
-29.70484
 20
-5.15788
 30
0.0
 10
-29.72082
 20
-5.22085
 30
0.0
 10
-29.75935
 20
-5.37263
 30
0.0
 10
-29.90685
 20
-5.70256
 30
0.0
 10
-29.98637
 20
-5.83085
 30
0.0
 10
-29.98637
 20
-5.83085
 30
0.0
 10
-30.18425
 20
-6.13179
 30
0.0
 10
-30.18425
 20
-6.13179
 30
0.0
 10
-30.25052
 20
-6.22904
 30
0.0
 10
-30.47894
 20
-6.65769
 30
0.0
 10
-30.52949
 20
-6.78376
 30
0.0
 10
-30.54247
 20
-6.81613
 30
0.0
 10
-30.55368
 20
-6.83752
 30
0.0
 10
-30.56607
 20
-6.87034
 30
0.0
 10
-30.57769
 20
-6.9011
 30
0.0
 10
-30.58747
 20
-6.94145
 30
0.0
 10
-30.59877
 20
-6.96819
 30
0.0
 10
-30.59877
 20
-6.96819
 30
0.0
 10
-30.63663
 20
-7.05198
 30
0.0
 10
-30.63663
 20
-7.05198
 30
0.0
 10
-30.64714
 20
-7.07819
 30
0.0
 10
-30.65654
 20
-7.11732
 30
0.0
 10
-30.67037
 20
-7.14252
 30
0.0
 10
-30.6864
 20
-7.17173
 30
0.0
 10
-30.70187
 20
-7.18432
 30
0.0
 10
-30.71092
 20
-7.22318
 30
0.0
 10
-30.71342
 20
-7.23389
 30
0.0
 10
-30.71367
 20
-7.23704
 30
0.0
 10
-30.71693
 20
-7.24611
 30
0.0
 10
-30.71693
 20
-7.24611
 30
0.0
 10
-30.77865
 20
-7.40864
 30
0.0
 10
-30.77865
 20
-7.40864
 30
0.0
 10
-30.79287
 20
-7.43437
 30
0.0
 10
-30.79487
 20
-7.41759
 30
0.0
 10
-30.79728
 20
-7.45077
 30
0.0
 10
-30.80015
 20
-7.49058
 30
0.0
 10
-30.82813
 20
-7.56594
 30
0.0
 10
-30.84145
 20
-7.60951
 30
0.0
 10
-30.84836
 20
-7.63211
 30
0.0
 10
-30.86283
 20
-7.68044
 30
0.0
 10
-30.87737
 20
-7.69154
 30
0.0
  0
ENDSEC
  0
SECTION
  2
OBJECTS
  0
DICTIONARY
  5
C
330
0
100
AcDbDictionary
281
     1
  3
ACAD_DETAILVIEWSTYLE
350
C8
  3
ACAD_GROUP
350
D
  3
ACAD_LAYOUT
350
1A
  3
ACAD_MATERIAL
350
43
  3
ACAD_MLEADERSTYLE
350
6B
  3
ACAD_MLINESTYLE
350
17
  3
ACAD_PLOTSETTINGS
350
19
  3
ACAD_PLOTSTYLENAME
350
E
  3
ACAD_SCALELIST
350
47
  3
ACAD_SECTIONVIEWSTYLE
350
C9
  3
ACAD_TABLESTYLE
350
69
  3
ACAD_VISUALSTYLE
350
2A
  3
ACDB_RECOMPOSE_DATA
350
C5
  3
AcDbVariableDictionary
350
8D
  0
SUN
  5
6D
330
29
100
AcDbSun
 90
        1
290
     0
 63
     7
421
 16777215
 40
1.0
291
     1
 91
  2455826
 92
 54000000
292
     0
 70
     2
 71
   256
280
     1
  0
DICTIONARY
  5
C8
102
{ACAD_REACTORS
330
C
102
}
330
C
100
AcDbDictionary
281
     1
  0
DICTIONARY
  5
D
102
{ACAD_REACTORS
330
C
102
}
330
C
100
AcDbDictionary
281
     1
  0
DICTIONARY
  5
1A
102
{ACAD_REACTORS
330
C
102
}
330
C
100
AcDbDictionary
281
     1
  3
Layout1
350
1E
  3
Layout2
350
26
  3
Model
350
22
  0
DICTIONARY
  5
43
102
{ACAD_REACTORS
330
C
102
}
330
C
100
AcDbDictionary
281
     1
  3
ByBlock
350
45
  3
ByLayer
350
44
  3
Global
350
46
  0
DICTIONARY
  5
6B
102
{ACAD_REACTORS
330
C
102
}
330
C
100
AcDbDictionary
281
     1
  3
Standard
350
6C
  0
DICTIONARY
  5
17
102
{ACAD_REACTORS
330
C
102
}
330
C
100
AcDbDictionary
281
     1
  3
Standard
350
18
  0
DICTIONARY
  5
19
102
{ACAD_REACTORS
330
C
102
}
330
C
100
AcDbDictionary
281
     1
  0
ACDBDICTIONARYWDFLT
  5
E
102
{ACAD_REACTORS
330
C
102
}
330
C
100
AcDbDictionary
281
     1
  3
Normal
350
F
100
AcDbDictionaryWithDefault
340
F
  0
DICTIONARY
  5
47
102
{ACAD_REACTORS
330
C
102
}
330
C
100
AcDbDictionary
281
     1
  3
A0
350
48
  3
A1
350
49
  3
A2
350
4A
  3
A3
350
4B
  3
A4
350
4C
  3
A5
350
4D
  3
A6
350
4E
  3
A7
350
4F
  3
A8
350
50
  3
A9
350
51
  3
B0
350
52
  3
B1
350
53
  3
B2
350
54
  3
B3
350
55
  3
B4
350
56
  3
B5
350
57
  3
B6
350
58
  3
B7
350
59
  3
B8
350
5A
  3
B9
350
5B
  3
C0
350
5C
  3
C1
350
5D
  3
C2
350
5E
  3
C3
350
5F
  3
C4
350
60
  3
C5
350
61
  3
C6
350
62
  3
C7
350
63
  3
C8
350
64
  3
C9
350
65
  3
D0
350
66
  3
D1
350
67
  3
D2
350
68
  0
DICTIONARY
  5
C9
102
{ACAD_REACTORS
330
C
102
}
330
C
100
AcDbDictionary
281
     1
  0
DICTIONARY
  5
69
102
{ACAD_REACTORS
330
C
102
}
330
C
100
AcDbDictionary
281
     1
  3
Standard
350
6A
  0
DICTIONARY
  5
2A
102
{ACAD_REACTORS
330
C
102
}
330
C
100
AcDbDictionary
281
     1
  3
2dWireframe
350
2F
  3
Basic
350
32
  3
Brighten
350
36
  3
ColorChange
350
3A
  3
Conceptual
350
34
  3
Dim
350
35
  3
EdgeColorOff
350
3D
  3
Facepattern
350
39
  3
Flat
350
2B
  3
FlatWithEdges
350
2C
  3
Gouraud
350
2D
  3
GouraudWithEdges
350
2E
  3
Hidden
350
31
  3
JitterOff
350
3B
  3
Linepattern
350
38
  3
OverhangOff
350
3C
  3
Realistic
350
33
  3
Shaded
350
42
  3
Shaded with edges
350
41
  3
Shades of Gray
350
3E
  3
Sketchy
350
3F
  3
Thicken
350
37
  3
Wireframe
350
30
  3
X-Ray
350
40
  0
XRECORD
  5
C5
102
{ACAD_REACTORS
330
C
102
}
330
C
100
AcDbXrecord
280
     1
 90
        1
330
6A
  0
DICTIONARY
  5
8D
102
{ACAD_REACTORS
330
C
102
}
330
C
100
AcDbDictionary
281
     1
  3
CANNOSCALE
350
8E
  3
CMLEADERSTYLE
350
C7
  3
CTABLESTYLE
350
C6
  3
XCLIPFRAME
350
8F
  0
LAYOUT
  5
1E
102
{ACAD_REACTORS
330
1A
102
}
330
1A
100
AcDbPlotSettings
  1

  2
none_device
  4

  6

 40
0.0
 41
0.0
 42
0.0
 43
0.0
 44
0.0
 45
0.0
 46
0.0
 47
0.0
 48
0.0
 49
0.0
140
0.0
141
0.0
142
1.0
143
1.0
 70
   688
 72
     0
 73
     0
 74
     5
  7

 75
    16
 76
     0
 77
     2
 78
   300
147
1.0
148
0.0
149
0.0
100
AcDbLayout
  1
Layout1
 70
     1
 71
     1
 10
0.0
 20
0.0
 11
12.0
 21
9.0
 12
0.0
 22
0.0
 32
0.0
 14
1.000000000000000E+20
 24
1.000000000000000E+20
 34
1.000000000000000E+20
 15
-1.000000000000000E+20
 25
-1.000000000000000E+20
 35
-1.000000000000000E+20
146
0.0
 13
0.0
 23
0.0
 33
0.0
 16
1.0
 26
0.0
 36
0.0
 17
0.0
 27
1.0
 37
0.0
 76
     0
330
1B
  0
LAYOUT
  5
26
102
{ACAD_REACTORS
330
1A
102
}
330
1A
100
AcDbPlotSettings
  1

  2
none_device
  4

  6

 40
0.0
 41
0.0
 42
0.0
 43
0.0
 44
0.0
 45
0.0
 46
0.0
 47
0.0
 48
0.0
 49
0.0
140
0.0
141
0.0
142
1.0
143
1.0
 70
   688
 72
     0
 73
     0
 74
     5
  7

 75
    16
 76
     0
 77
     2
 78
   300
147
1.0
148
0.0
149
0.0
100
AcDbLayout
  1
Layout2
 70
     1
 71
     2
 10
0.0
 20
0.0
 11
0.0
 21
0.0
 12
0.0
 22
0.0
 32
0.0
 14
0.0
 24
0.0
 34
0.0
 15
0.0
 25
0.0
 35
0.0
146
0.0
 13
0.0
 23
0.0
 33
0.0
 16
1.0
 26
0.0
 36
0.0
 17
0.0
 27
1.0
 37
0.0
 76
     0
330
23
  0
LAYOUT
  5
22
102
{ACAD_REACTORS
330
1A
102
}
330
1A
100
AcDbPlotSettings
  1

  2
none_device
  4
Letter_(8.50_x_11.00_Inches)
  6

 40
6.35
 41
6.35
 42
6.35000508
 43
6.35000508
 44
215.9
 45
279.4
 46
0.0
 47
0.0
 48
0.0
 49
0.0
140
0.0
141
0.0
142
1.0
143
1.0
 70
  1712
 72
     0
 73
     0
 74
     0
  7

 75
     0
 76
     0
 77
     2
 78
   300
147
1.0
148
0.0
149
0.0
100
AcDbLayout
  1
Model
 70
     1
 71
     0
 10
0.0
 20
0.0
 11
12.0
 21
9.0
 12
0.0
 22
0.0
 32
0.0
 14
-39.14923
 24
-8.8596
 34
0.0
 15
-21.90001
 25
11.47333
 35
0.0
146
0.0
 13
0.0
 23
0.0
 33
0.0
 16
1.0
 26
0.0
 36
0.0
 17
0.0
 27
1.0
 37
0.0
 76
     0
330
1F
331
29
  0
MATERIAL
  5
45
102
{ACAD_REACTORS
330
43
102
}
330
43
100
AcDbMaterial
  1
ByBlock
 72
     1
 94
      127
  0
MATERIAL
  5
44
102
{ACAD_REACTORS
330
43
102
}
330
43
100
AcDbMaterial
  1
ByLayer
 72
     1
 94
      127
  0
MATERIAL
  5
46
102
{ACAD_REACTORS
330
43
102
}
330
43
100
AcDbMaterial
  1
Global
 72
     1
 94
      127
  0
MLEADERSTYLE
  5
6C
102
{ACAD_REACTORS
330
6B
102
}
102
{ACAD_XDICTIONARY
360
C3
102
}
330
6B
100
AcDbMLeaderStyle
170
     2
171
     1
172
     0
 90
        2
 40
0.0
 41
0.0
173
     1
 91
-1056964608
340
14
 92
       -2
290
     1
 42
0.09
291
     1
 43
0.36
  3
Standard
341
0
 44
0.18
300

342
11
174
     1
178
     6
175
     1
176
     0
 93
-1056964608
 45
0.18
292
     0
297
     0
 46
0.18
343
0
 94
-1056964608
 47
1.0
 49
1.0
140
1.0
293
     1
141
0.0
294
     1
177
     0
142
1.0
295
     0
296
     0
143
0.125
1001
ACAD_MLEADERVER
1070
     2
  0
MLINESTYLE
  5
18
102
{ACAD_REACTORS
330
17
102
}
330
17
100
AcDbMlineStyle
  2
Standard
 70
     0
  3

 62
   256
 51
90.0
 52
90.0
 71
     2
 49
0.5
 62
   256
  6
BYLAYER
 49
-0.5
 62
   256
  6
BYLAYER
  0
ACDBPLACEHOLDER
  5
F
102
{ACAD_REACTORS
330
E
102
}
330
E
  0
SCALE
  5
48
102
{ACAD_REACTORS
330
47
102
}
330
47
100
AcDbScale
 70
     0
300
1:1
140
1.0
141
1.0
290
     1
  0
SCALE
  5
49
102
{ACAD_REACTORS
330
47
102
}
330
47
100
AcDbScale
 70
     0
300
1:2
140
1.0
141
2.0
290
     0
  0
SCALE
  5
4A
102
{ACAD_REACTORS
330
47
102
}
330
47
100
AcDbScale
 70
     0
300
1:4
140
1.0
141
4.0
290
     0
  0
SCALE
  5
4B
102
{ACAD_REACTORS
330
47
102
}
330
47
100
AcDbScale
 70
     0
300
1:5
140
1.0
141
5.0
290
     0
  0
SCALE
  5
4C
102
{ACAD_REACTORS
330
47
102
}
330
47
100
AcDbScale
 70
     0
300
1:8
140
1.0
141
8.0
290
     0
  0
SCALE
  5
4D
102
{ACAD_REACTORS
330
47
102
}
330
47
100
AcDbScale
 70
     0
300
1:10
140
1.0
141
10.0
290
     0
  0
SCALE
  5
4E
102
{ACAD_REACTORS
330
47
102
}
330
47
100
AcDbScale
 70
     0
300
1:16
140
1.0
141
16.0
290
     0
  0
SCALE
  5
4F
102
{ACAD_REACTORS
330
47
102
}
330
47
100
AcDbScale
 70
     0
300
1:20
140
1.0
141
20.0
290
     0
  0
SCALE
  5
50
102
{ACAD_REACTORS
330
47
102
}
330
47
100
AcDbScale
 70
     0
300
1:30
140
1.0
141
30.0
290
     0
  0
SCALE
  5
51
102
{ACAD_REACTORS
330
47
102
}
330
47
100
AcDbScale
 70
     0
300
1:40
140
1.0
141
40.0
290
     0
  0
SCALE
  5
52
102
{ACAD_REACTORS
330
47
102
}
330
47
100
AcDbScale
 70
     0
300
1:50
140
1.0
141
50.0
290
     0
  0
SCALE
  5
53
102
{ACAD_REACTORS
330
47
102
}
330
47
100
AcDbScale
 70
     0
300
1:100
140
1.0
141
100.0
290
     0
  0
SCALE
  5
54
102
{ACAD_REACTORS
330
47
102
}
330
47
100
AcDbScale
 70
     0
300
2:1
140
2.0
141
1.0
290
     0
  0
SCALE
  5
55
102
{ACAD_REACTORS
330
47
102
}
330
47
100
AcDbScale
 70
     0
300
4:1
140
4.0
141
1.0
290
     0
  0
SCALE
  5
56
102
{ACAD_REACTORS
330
47
102
}
330
47
100
AcDbScale
 70
     0
300
8:1
140
8.0
141
1.0
290
     0
  0
SCALE
  5
57
102
{ACAD_REACTORS
330
47
102
}
330
47
100
AcDbScale
 70
     0
300
10:1
140
10.0
141
1.0
290
     0
  0
SCALE
  5
58
102
{ACAD_REACTORS
330
47
102
}
330
47
100
AcDbScale
 70
     0
300
100:1
140
100.0
141
1.0
290
     0
  0
SCALE
  5
59
102
{ACAD_REACTORS
330
47
102
}
330
47
100
AcDbScale
 70
     0
300
1/128" = 1'-0"
140
0.0078125
141
12.0
290
     0
  0
SCALE
  5
5A
102
{ACAD_REACTORS
330
47
102
}
330
47
100
AcDbScale
 70
     0
300
1/64" = 1'-0"
140
0.015625
141
12.0
290
     0
  0
SCALE
  5
5B
102
{ACAD_REACTORS
330
47
102
}
330
47
100
AcDbScale
 70
     0
300
1/32" = 1'-0"
140
0.03125
141
12.0
290
     0
  0
SCALE
  5
5C
102
{ACAD_REACTORS
330
47
102
}
330
47
100
AcDbScale
 70
     0
300
1/16" = 1'-0"
140
0.0625
141
12.0
290
     0
  0
SCALE
  5
5D
102
{ACAD_REACTORS
330
47
102
}
330
47
100
AcDbScale
 70
     0
300
3/32" = 1'-0"
140
0.09375
141
12.0
290
     0
  0
SCALE
  5
5E
102
{ACAD_REACTORS
330
47
102
}
330
47
100
AcDbScale
 70
     0
300
1/8" = 1'-0"
140
0.125
141
12.0
290
     0
  0
SCALE
  5
5F
102
{ACAD_REACTORS
330
47
102
}
330
47
100
AcDbScale
 70
     0
300
3/16" = 1'-0"
140
0.1875
141
12.0
290
     0
  0
SCALE
  5
60
102
{ACAD_REACTORS
330
47
102
}
330
47
100
AcDbScale
 70
     0
300
1/4" = 1'-0"
140
0.25
141
12.0
290
     0
  0
SCALE
  5
61
102
{ACAD_REACTORS
330
47
102
}
330
47
100
AcDbScale
 70
     0
300
3/8" = 1'-0"
140
0.375
141
12.0
290
     0
  0
SCALE
  5
62
102
{ACAD_REACTORS
330
47
102
}
330
47
100
AcDbScale
 70
     0
300
1/2" = 1'-0"
140
0.5
141
12.0
290
     0
  0
SCALE
  5
63
102
{ACAD_REACTORS
330
47
102
}
330
47
100
AcDbScale
 70
     0
300
3/4" = 1'-0"
140
0.75
141
12.0
290
     0
  0
SCALE
  5
64
102
{ACAD_REACTORS
330
47
102
}
330
47
100
AcDbScale
 70
     0
300
1" = 1'-0"
140
1.0
141
12.0
290
     0
  0
SCALE
  5
65
102
{ACAD_REACTORS
330
47
102
}
330
47
100
AcDbScale
 70
     0
300
1-1/2" = 1'-0"
140
1.5
141
12.0
290
     0
  0
SCALE
  5
66
102
{ACAD_REACTORS
330
47
102
}
330
47
100
AcDbScale
 70
     0
300
3" = 1'-0"
140
3.0
141
12.0
290
     0
  0
SCALE
  5
67
102
{ACAD_REACTORS
330
47
102
}
330
47
100
AcDbScale
 70
     0
300
6" = 1'-0"
140
6.0
141
12.0
290
     0
  0
SCALE
  5
68
102
{ACAD_REACTORS
330
47
102
}
330
47
100
AcDbScale
 70
     0
300
1'-0" = 1'-0"
140
12.0
141
12.0
290
     0
  0
TABLESTYLE
  5
6A
102
{ACAD_REACTORS
330
69
102
}
102
{ACAD_XDICTIONARY
360
C0
102
}
330
69
100
AcDbTableStyle
  3
Standard
 70
     0
 71
     0
 40
0.06
 41
0.06
280
     0
281
     0
  7
Standard
140
0.18
170
     2
 62
     0
 63
   257
283
     0
 90
        4
 91
        0
  1

274
    -2
284
     1
 64
     0
275
    -2
285
     1
 65
     0
276
    -2
286
     1
 66
     0
277
    -2
287
     1
 67
     0
278
    -2
288
     1
 68
     0
279
    -2
289
     1
 69
     0
  7
Standard
140
0.25
170
     5
 62
     0
 63
   257
283
     0
 90
        4
 91
        0
  1

274
    -2
284
     1
 64
     0
275
    -2
285
     1
 65
     0
276
    -2
286
     1
 66
     0
277
    -2
287
     1
 67
     0
278
    -2
288
     1
 68
     0
279
    -2
289
     1
 69
     0
  7
Standard
140
0.18
170
     5
 62
     0
 63
   257
283
     0
 90
        4
 91
        0
  1

274
    -2
284
     1
 64
     0
275
    -2
285
     1
 65
     0
276
    -2
286
     1
 66
     0
277
    -2
287
     1
 67
     0
278
    -2
288
     1
 68
     0
279
    -2
289
     1
 69
     0
  0
VISUALSTYLE
  5
2F
102
{ACAD_REACTORS
330
2A
102
}
102
{ACAD_XDICTIONARY
360
98
102
}
330
2A
100
AcDbVisualStyle
  2
2dWireframe
 70
     4
 71
     0
 72
     2
 73
     0
 90
        0
 40
0.6
 41
30.0
 62
     5
 63
     7
421
 16777215
 74
     1
 91
        4
 64
     7
 65
   257
 75
     1
175
     1
 42
1.0
 92
        0
 66
   257
 43
1.0
 76
     1
 77
     6
 78
     2
 67
     7
 79
     5
170
     0
171
     0
290
     0
174
     0
 93
        1
 44
0.0
173
     0
291
     0
 45
0.0
  0
VISUALSTYLE
  5
32
102
{ACAD_REACTORS
330
2A
102
}
102
{ACAD_XDICTIONARY
360
9E
102
}
330
2A
100
AcDbVisualStyle
  2
Basic
 70
     7
 71
     1
 72
     0
 73
     1
 90
        0
 40
0.6
 41
30.0
 62
     5
 63
     7
421
 16777215
 74
     0
 91
        4
 64
     7
 65
   257
 75
     1
175
     1
 42
1.0
 92
        8
 66
     7
 43
1.0
 76
     1
 77
     6
 78
     2
 67
     7
 79
     5
170
     0
171
     0
290
     0
174
     0
 93
        1
 44
0.0
173
     0
291
     1
 45
0.0
  0
VISUALSTYLE
  5
36
102
{ACAD_REACTORS
330
2A
102
}
102
{ACAD_XDICTIONARY
360
A6
102
}
330
2A
100
AcDbVisualStyle
  2
Brighten
 70
    12
 71
     2
 72
     2
 73
     0
 90
        0
 40
0.6
 41
30.0
 62
     5
 63
     7
421
 16777215
 74
     1
 91
        4
 64
     7
 65
   257
 75
     1
175
     1
 42
1.0
 92
        8
 66
     7
 43
1.0
 76
     1
 77
     6
 78
     2
 67
     7
 79
     5
170
     0
171
     0
290
     0
174
     0
 93
        1
 44
50.0
173
     0
291
     1
 45
0.0
  0
VISUALSTYLE
  5
3A
102
{ACAD_REACTORS
330
2A
102
}
102
{ACAD_XDICTIONARY
360
AE
102
}
330
2A
100
AcDbVisualStyle
  2
ColorChange
 70
    16
 71
     2
 72
     2
 73
     3
 90
        0
 40
0.6
 41
30.0
 62
     5
 63
     8
421
  8421504
 74
     1
 91
        4
 64
     7
 65
   257
 75
     1
175
     1
 42
1.0
 92
        8
 66
     8
424
  8421504
 43
1.0
 76
     1
 77
     6
 78
     2
 67
     7
 79
     5
170
     0
171
     0
290
     0
174
     0
 93
        1
 44
0.0
173
     0
291
     1
 45
0.0
  0
VISUALSTYLE
  5
34
102
{ACAD_REACTORS
330
2A
102
}
102
{ACAD_XDICTIONARY
360
A2
102
}
330
2A
100
AcDbVisualStyle
  2
Conceptual
 70
     9
 71
     3
 72
     2
 73
     0
 90
        0
 40
0.6
 41
30.0
 62
     5
 63
     7
421
 16777215
 74
     2
 91
        2
 64
     7
 65
   257
 75
     1
175
     1
 42
179.0
 92
        8
 66
     7
 43
1.0
 76
     1
 77
     6
 78
     2
 67
     7
 79
     3
170
     0
171
     0
290
     0
174
     0
 93
        1
 44
0.0
173
     0
291
     0
 45
0.0
  0
VISUALSTYLE
  5
35
102
{ACAD_REACTORS
330
2A
102
}
102
{ACAD_XDICTIONARY
360
A4
102
}
330
2A
100
AcDbVisualStyle
  2
Dim
 70
    11
 71
     2
 72
     2
 73
     0
 90
        0
 40
0.6
 41
30.0
 62
     5
 63
     7
421
 16777215
 74
     1
 91
        4
 64
     7
 65
   257
 75
     1
175
     1
 42
1.0
 92
        8
 66
     7
 43
1.0
 76
     1
 77
     6
 78
     2
 67
     7
 79
     5
170
     0
171
     0
290
     0
174
     0
 93
        1
 44
-50.0
173
     0
291
     1
 45
0.0
  0
VISUALSTYLE
  5
3D
102
{ACAD_REACTORS
330
2A
102
}
102
{ACAD_XDICTIONARY
360
B4
102
}
330
2A
100
AcDbVisualStyle
  2
EdgeColorOff
 70
    22
 71
     2
 72
     2
 73
     0
 90
        0
 40
0.6
 41
30.0
 62
     5
 63
     7
421
 16777215
 74
     1
 91
        4
 64
     7
 65
   257
 75
     1
175
     1
 42
1.0
 92
        8
 66
     7
 43
1.0
 76
     1
 77
     6
 78
     2
 67
     7
 79
     5
170
     0
171
     0
290
     0
174
     0
 93
        1
 44
0.0
173
     0
291
     1
 45
0.0
  0
VISUALSTYLE
  5
39
102
{ACAD_REACTORS
330
2A
102
}
102
{ACAD_XDICTIONARY
360
AC
102
}
330
2A
100
AcDbVisualStyle
  2
Facepattern
 70
    15
 71
     2
 72
     2
 73
     0
 90
        0
 40
0.6
 41
30.0
 62
     5
 63
     7
421
 16777215
 74
     1
 91
        4
 64
     7
 65
   257
 75
     1
175
     1
 42
1.0
 92
        8
 66
     7
 43
1.0
 76
     1
 77
     6
 78
     2
 67
     7
 79
     5
170
     0
171
     0
290
     0
174
     0
 93
        1
 44
0.0
173
     0
291
     1
 45
0.0
  0
VISUALSTYLE
  5
2B
102
{ACAD_REACTORS
330
2A
102
}
102
{ACAD_XDICTIONARY
360
90
102
}
330
2A
100
AcDbVisualStyle
  2
Flat
 70
     0
 71
     2
 72
     1
 73
     1
 90
        2
 40
0.6
 41
30.0
 62
     5
 63
     7
421
 16777215
 74
     0
 91
        0
 64
     7
 65
   257
 75
     1
175
     1
 42
1.0
 92
        8
 66
     7
 43
1.0
 76
     1
 77
     6
 78
     2
 67
     7
 79
     5
170
     0
171
     0
290
     0
174
     0
 93
       13
 44
0.0
173
     0
291
     1
 45
0.0
  0
VISUALSTYLE
  5
2C
102
{ACAD_REACTORS
330
2A
102
}
102
{ACAD_XDICTIONARY
360
92
102
}
330
2A
100
AcDbVisualStyle
  2
FlatWithEdges
 70
     1
 71
     2
 72
     1
 73
     1
 90
        2
 40
0.6
 41
30.0
 62
     5
 63
     7
421
 16777215
 74
     1
 91
        0
 64
     7
 65
   257
 75
     1
175
     1
 42
1.0
 92
        0
 66
   257
 43
1.0
 76
     1
 77
     6
 78
     2
 67
     7
 79
     5
170
     0
171
     0
290
     0
174
     0
 93
       13
 44
0.0
173
     0
291
     1
 45
0.0
  0
VISUALSTYLE
  5
2D
102
{ACAD_REACTORS
330
2A
102
}
102
{ACAD_XDICTIONARY
360
94
102
}
330
2A
100
AcDbVisualStyle
  2
Gouraud
 70
     2
 71
     2
 72
     2
 73
     1
 90
        2
 40
0.6
 41
30.0
 62
     5
 63
     7
421
 16777215
 74
     0
 91
        0
 64
     7
 65
   257
 75
     1
175
     1
 42
1.0
 92
        0
 66
     7
 43
1.0
 76
     1
 77
     6
 78
     2
 67
     7
 79
     5
170
     0
171
     0
290
     0
174
     0
 93
       13
 44
0.0
173
     0
291
     1
 45
0.0
  0
VISUALSTYLE
  5
2E
102
{ACAD_REACTORS
330
2A
102
}
102
{ACAD_XDICTIONARY
360
96
102
}
330
2A
100
AcDbVisualStyle
  2
GouraudWithEdges
 70
     3
 71
     2
 72
     2
 73
     1
 90
        2
 40
0.6
 41
30.0
 62
     5
 63
     7
421
 16777215
 74
     1
 91
        0
 64
     7
 65
   257
 75
     1
175
     1
 42
1.0
 92
        0
 66
   257
 43
1.0
 76
     1
 77
     6
 78
     2
 67
     7
 79
     5
170
     0
171
     0
290
     0
174
     0
 93
       13
 44
0.0
173
     0
291
     1
 45
0.0
  0
VISUALSTYLE
  5
31
102
{ACAD_REACTORS
330
2A
102
}
102
{ACAD_XDICTIONARY
360
9C
102
}
330
2A
100
AcDbVisualStyle
  2
Hidden
 70
     6
 71
     1
 72
     2
 73
     2
 90
        0
 40
0.6
 41
30.0
 62
     5
 63
     7
421
 16777215
 74
     2
 91
        2
 64
     7
 65
   257
 75
     2
175
     1
 42
40.0
 92
        0
 66
   257
 43
1.0
 76
     1
 77
     6
 78
     2
 67
     7
 79
     3
170
     0
171
     0
290
     0
174
     0
 93
        1
 44
0.0
173
     0
291
     0
 45
0.0
  0
VISUALSTYLE
  5
3B
102
{ACAD_REACTORS
330
2A
102
}
102
{ACAD_XDICTIONARY
360
B0
102
}
330
2A
100
AcDbVisualStyle
  2
JitterOff
 70
    20
 71
     2
 72
     2
 73
     0
 90
        0
 40
0.6
 41
30.0
 62
     5
 63
     7
421
 16777215
 74
     1
 91
        4
 64
     7
 65
   257
 75
     1
175
     1
 42
1.0
 92
       10
 66
     7
 43
1.0
 76
     1
 77
     6
 78
     2
 67
     7
 79
     5
170
     0
171
     0
290
     0
174
     0
 93
        1
 44
0.0
173
     0
291
     1
 45
0.0
  0
VISUALSTYLE
  5
38
102
{ACAD_REACTORS
330
2A
102
}
102
{ACAD_XDICTIONARY
360
AA
102
}
330
2A
100
AcDbVisualStyle
  2
Linepattern
 70
    14
 71
     2
 72
     2
 73
     0
 90
        0
 40
0.6
 41
30.0
 62
     5
 63
     7
421
 16777215
 74
     1
 91
        4
 64
     7
 65
   257
 75
     7
175
     7
 42
1.0
 92
        8
 66
     7
 43
1.0
 76
     1
 77
     6
 78
     2
 67
     7
 79
     5
170
     0
171
     0
290
     0
174
     0
 93
        1
 44
0.0
173
     0
291
     1
 45
0.0
  0
VISUALSTYLE
  5
3C
102
{ACAD_REACTORS
330
2A
102
}
102
{ACAD_XDICTIONARY
360
B2
102
}
330
2A
100
AcDbVisualStyle
  2
OverhangOff
 70
    21
 71
     2
 72
     2
 73
     0
 90
        0
 40
0.6
 41
30.0
 62
     5
 63
     7
421
 16777215
 74
     1
 91
        4
 64
     7
 65
   257
 75
     1
175
     1
 42
1.0
 92
        9
 66
     7
 43
1.0
 76
     1
 77
     6
 78
     2
 67
     7
 79
     5
170
     0
171
     0
290
     0
174
     0
 93
        1
 44
0.0
173
     0
291
     1
 45
0.0
  0
VISUALSTYLE
  5
33
102
{ACAD_REACTORS
330
2A
102
}
102
{ACAD_XDICTIONARY
360
A0
102
}
330
2A
100
AcDbVisualStyle
  2
Realistic
 70
     8
 71
     2
 72
     3
 73
     0
 90
        2
 40
0.6
 41
30.0
 62
     5
 63
     7
421
 16777215
 74
     0
 91
        0
 64
     7
 65
   257
 75
     1
175
     1
 42
1.0
 92
        8
 66
   257
 43
1.0
 76
     1
 77
     6
 78
     2
 67
     7
 79
     3
170
     0
171
     0
290
     0
174
     0
 93
       13
 44
0.0
173
     0
291
     0
 45
0.0
  0
VISUALSTYLE
  5
42
102
{ACAD_REACTORS
330
2A
102
}
102
{ACAD_XDICTIONARY
360
BE
102
}
330
2A
100
AcDbVisualStyle
  2
Shaded
 70
    27
 71
     2
 72
     2
 73
     1
 90
        2
 40
0.6
 41
30.0
 62
     5
 63
     7
421
 16777215
 74
     0
 91
        4
 64
     7
 65
   257
 75
     1
175
     1
 42
1.0
 92
        8
 66
   257
 43
1.0
 76
     1
 77
     6
 78
     2
 67
     8
425
  7895160
 79
     3
170
     0
171
     0
290
     0
174
     0
 93
        5
 44
0.0
173
     0
291
     0
 45
0.0
  0
VISUALSTYLE
  5
41
102
{ACAD_REACTORS
330
2A
102
}
102
{ACAD_XDICTIONARY
360
BC
102
}
330
2A
100
AcDbVisualStyle
  2
Shaded with edges
 70
    26
 71
     2
 72
     2
 73
     1
 90
        2
 40
0.6
 41
30.0
 62
     5
 63
     7
421
 16777215
 74
     1
 91
       10
 64
     7
 65
   257
 75
     2
175
     1
 42
1.0
 92
        8
 66
   257
 43
1.0
 76
     1
 77
     6
 78
     2
 67
     7
 79
     3
170
     0
171
     0
290
     0
174
     0
 93
        5
 44
0.0
173
     0
291
     0
 45
0.0
  0
VISUALSTYLE
  5
3E
102
{ACAD_REACTORS
330
2A
102
}
102
{ACAD_XDICTIONARY
360
B6
102
}
330
2A
100
AcDbVisualStyle
  2
Shades of Gray
 70
    23
 71
     2
 72
     2
 73
     3
 90
        0
 40
0.6
 41
30.0
 62
     5
 63
     7
421
 16777215
 74
     2
 91
        2
 64
     7
 65
     7
 75
     1
175
     1
 42
40.0
 92
        8
 66
     7
 43
1.0
 76
     1
 77
     6
 78
     2
 67
     7
 79
     3
170
     0
171
     0
290
     0
174
     0
 93
        1
 44
0.0
173
     0
291
     0
 45
0.0
  0
VISUALSTYLE
  5
3F
102
{ACAD_REACTORS
330
2A
102
}
102
{ACAD_XDICTIONARY
360
B8
102
}
330
2A
100
AcDbVisualStyle
  2
Sketchy
 70
    24
 71
     1
 72
     2
 73
     2
 90
        0
 40
0.6
 41
30.0
 62
     5
 63
     7
421
 16777215
 74
     2
 91
        2
 64
     7
 65
     7
 75
     1
175
     1
 42
40.0
 92
       11
 66
     7
 43
1.0
 76
     1
 77
     6
 78
     2
 67
     7
 79
     6
170
     0
171
     0
290
     0
174
     0
 93
        1
 44
0.0
173
     0
291
     0
 45
0.0
  0
VISUALSTYLE
  5
37
102
{ACAD_REACTORS
330
2A
102
}
102
{ACAD_XDICTIONARY
360
A8
102
}
330
2A
100
AcDbVisualStyle
  2
Thicken
 70
    13
 71
     2
 72
     2
 73
     0
 90
        0
 40
0.6
 41
30.0
 62
     5
 63
     7
421
 16777215
 74
     1
 91
        4
 64
     7
 65
   257
 75
     1
175
     1
 42
1.0
 92
       12
 66
     7
 43
1.0
 76
     1
 77
     6
 78
     2
 67
     7
 79
     5
170
     0
171
     0
290
     0
174
     0
 93
        1
 44
0.0
173
     0
291
     1
 45
0.0
  0
VISUALSTYLE
  5
30
102
{ACAD_REACTORS
330
2A
102
}
102
{ACAD_XDICTIONARY
360
9A
102
}
330
2A
100
AcDbVisualStyle
  2
Wireframe
 70
     5
 71
     0
 72
     2
 73
     0
 90
        0
 40
0.6
 41
30.0
 62
     5
 63
     7
421
 16777215
 74
     1
 91
        4
 64
     7
 65
   257
 75
     1
175
     1
 42
1.0
 92
        0
 66
   257
 43
1.0
 76
     1
 77
     6
 78
     2
 67
     7
 79
     3
170
     0
171
     0
290
     0
174
     0
 93
        1
 44
0.0
173
     0
291
     0
 45
0.0
  0
VISUALSTYLE
  5
40
102
{ACAD_REACTORS
330
2A
102
}
102
{ACAD_XDICTIONARY
360
BA
102
}
330
2A
100
AcDbVisualStyle
  2
X-Ray
 70
    25
 71
     2
 72
     2
 73
     1
 90
        1
 40
0.5
 41
30.0
 62
     5
 63
     7
421
 16777215
 74
     1
 91
        0
 64
     7
 65
   257
 75
     1
175
     1
 42
1.0
 92
        8
 66
     7
 43
1.0
 76
     1
 77
     6
 78
     2
 67
     7
 79
     3
170
     0
171
     0
290
     0
174
     0
 93
       13
 44
0.0
173
     0
291
     0
 45
0.0
  0
DICTIONARYVAR
  5
8E
102
{ACAD_REACTORS
330
8D
102
}
330
8D
100
DictionaryVariables
280
     0
  1
1:1
  0
DICTIONARYVAR
  5
C7
102
{ACAD_REACTORS
330
8D
102
}
330
8D
100
DictionaryVariables
280
     0
  1
Standard
  0
DICTIONARYVAR
  5
C6
102
{ACAD_REACTORS
330
8D
102
}
330
8D
100
DictionaryVariables
280
     0
  1
Standard
  0
DICTIONARYVAR
  5
8F
102
{ACAD_REACTORS
330
8D
102
}
330
8D
100
DictionaryVariables
280
     0
  1
2
  0
DICTIONARY
  5
C3
330
6C
100
AcDbDictionary
280
     1
281
     1
  3
ACAD_XREC_ROUNDTRIP
360
C4
  0
DICTIONARY
  5
C0
330
6A
100
AcDbDictionary
280
     1
281
     1
  3
ACAD_ROUNDTRIP_2008_TABLESTYLE_CELLSTYLEMAP
360
C1
  0
DICTIONARY
  5
98
330
2F
100
AcDbDictionary
280
     1
281
     1
  3
ACAD_XREC_ROUNDTRIP
360
99
  0
DICTIONARY
  5
9E
330
32
100
AcDbDictionary
280
     1
281
     1
  3
ACAD_XREC_ROUNDTRIP
360
9F
  0
DICTIONARY
  5
A6
330
36
100
AcDbDictionary
280
     1
281
     1
  3
ACAD_XREC_ROUNDTRIP
360
A7
  0
DICTIONARY
  5
AE
330
3A
100
AcDbDictionary
280
     1
281
     1
  3
ACAD_XREC_ROUNDTRIP
360
AF
  0
DICTIONARY
  5
A2
330
34
100
AcDbDictionary
280
     1
281
     1
  3
ACAD_XREC_ROUNDTRIP
360
A3
  0
DICTIONARY
  5
A4
330
35
100
AcDbDictionary
280
     1
281
     1
  3
ACAD_XREC_ROUNDTRIP
360
A5
  0
DICTIONARY
  5
B4
330
3D
100
AcDbDictionary
280
     1
281
     1
  3
ACAD_XREC_ROUNDTRIP
360
B5
  0
DICTIONARY
  5
AC
330
39
100
AcDbDictionary
280
     1
281
     1
  3
ACAD_XREC_ROUNDTRIP
360
AD
  0
DICTIONARY
  5
90
330
2B
100
AcDbDictionary
280
     1
281
     1
  3
ACAD_XREC_ROUNDTRIP
360
91
  0
DICTIONARY
  5
92
330
2C
100
AcDbDictionary
280
     1
281
     1
  3
ACAD_XREC_ROUNDTRIP
360
93
  0
DICTIONARY
  5
94
330
2D
100
AcDbDictionary
280
     1
281
     1
  3
ACAD_XREC_ROUNDTRIP
360
95
  0
DICTIONARY
  5
96
330
2E
100
AcDbDictionary
280
     1
281
     1
  3
ACAD_XREC_ROUNDTRIP
360
97
  0
DICTIONARY
  5
9C
330
31
100
AcDbDictionary
280
     1
281
     1
  3
ACAD_XREC_ROUNDTRIP
360
9D
  0
DICTIONARY
  5
B0
330
3B
100
AcDbDictionary
280
     1
281
     1
  3
ACAD_XREC_ROUNDTRIP
360
B1
  0
DICTIONARY
  5
AA
330
38
100
AcDbDictionary
280
     1
281
     1
  3
ACAD_XREC_ROUNDTRIP
360
AB
  0
DICTIONARY
  5
B2
330
3C
100
AcDbDictionary
280
     1
281
     1
  3
ACAD_XREC_ROUNDTRIP
360
B3
  0
DICTIONARY
  5
A0
330
33
100
AcDbDictionary
280
     1
281
     1
  3
ACAD_XREC_ROUNDTRIP
360
A1
  0
DICTIONARY
  5
BE
330
42
100
AcDbDictionary
280
     1
281
     1
  3
ACAD_XREC_ROUNDTRIP
360
BF
  0
DICTIONARY
  5
BC
330
41
100
AcDbDictionary
280
     1
281
     1
  3
ACAD_XREC_ROUNDTRIP
360
BD
  0
DICTIONARY
  5
B6
330
3E
100
AcDbDictionary
280
     1
281
     1
  3
ACAD_XREC_ROUNDTRIP
360
B7
  0
DICTIONARY
  5
B8
330
3F
100
AcDbDictionary
280
     1
281
     1
  3
ACAD_XREC_ROUNDTRIP
360
B9
  0
DICTIONARY
  5
A8
330
37
100
AcDbDictionary
280
     1
281
     1
  3
ACAD_XREC_ROUNDTRIP
360
A9
  0
DICTIONARY
  5
9A
330
30
100
AcDbDictionary
280
     1
281
     1
  3
ACAD_XREC_ROUNDTRIP
360
9B
  0
DICTIONARY
  5
BA
330
40
100
AcDbDictionary
280
     1
281
     1
  3
ACAD_XREC_ROUNDTRIP
360
BB
  0
XRECORD
  5
C4
102
{ACAD_REACTORS
330
C3
102
}
330
C3
100
AcDbXrecord
280
     1
102
ACAD_ROUNDTRIP_2010_MLEADER_STYLE
  0
CELLSTYLEMAP
  5
C1
102
{ACAD_REACTORS
330
C0
102
}
330
C0
100
AcDbCellStyleMap
 90
        3
300
CELLSTYLE
  1
TABLEFORMAT_BEGIN
 90
        5
170
     1
 91
        0
 92
    32768
 62
   257
 93
        1
300
CONTENTFORMAT
  1
CONTENTFORMAT_BEGIN
 90
        0
 91
        0
 92
        4
 93
        0
300

 40
0.0
140
1.0
 94
        5
 62
     0
340
11
144
0.25
309
CONTENTFORMAT_END
171
     1
301
MARGIN
  1
CELLMARGIN_BEGIN
 40
0.06
 40
0.06
 40
0.06
 40
0.06
 40
0.06
 40
0.06
309
CELLMARGIN_END
 94
        6
 95
        1
302
GRIDFORMAT
  1
GRIDFORMAT_BEGIN
 90
        0
 91
        1
 62
     0
 92
       -2
340
14
 93
        0
 40
0.045
309
GRIDFORMAT_END
 95
        2
302
GRIDFORMAT
  1
GRIDFORMAT_BEGIN
 90
        0
 91
        1
 62
     0
 92
       -2
340
14
 93
        0
 40
0.045
309
GRIDFORMAT_END
 95
        4
302
GRIDFORMAT
  1
GRIDFORMAT_BEGIN
 90
        0
 91
        1
 62
     0
 92
       -2
340
14
 93
        0
 40
0.045
309
GRIDFORMAT_END
 95
        8
302
GRIDFORMAT
  1
GRIDFORMAT_BEGIN
 90
        0
 91
        1
 62
     0
 92
       -2
340
14
 93
        0
 40
0.045
309
GRIDFORMAT_END
 95
       16
302
GRIDFORMAT
  1
GRIDFORMAT_BEGIN
 90
        0
 91
        1
 62
     0
 92
       -2
340
14
 93
        0
 40
0.045
309
GRIDFORMAT_END
 95
       32
302
GRIDFORMAT
  1
GRIDFORMAT_BEGIN
 90
        0
 91
        1
 62
     0
 92
       -2
340
14
 93
        0
 40
0.045
309
GRIDFORMAT_END
309
TABLEFORMAT_END
  1
CELLSTYLE_BEGIN
 90
        1
 91
        1
300
_TITLE
309
CELLSTYLE_END
300
CELLSTYLE
  1
TABLEFORMAT_BEGIN
 90
        5
170
     1
 91
        0
 92
        0
 62
   257
 93
        1
300
CONTENTFORMAT
  1
CONTENTFORMAT_BEGIN
 90
        0
 91
        0
 92
        4
 93
        0
300

 40
0.0
140
1.0
 94
        5
 62
     0
340
11
144
0.18
309
CONTENTFORMAT_END
171
     1
301
MARGIN
  1
CELLMARGIN_BEGIN
 40
0.06
 40
0.06
 40
0.06
 40
0.06
 40
0.06
 40
0.06
309
CELLMARGIN_END
 94
        6
 95
        1
302
GRIDFORMAT
  1
GRIDFORMAT_BEGIN
 90
        0
 91
        1
 62
     0
 92
       -2
340
14
 93
        0
 40
0.045
309
GRIDFORMAT_END
 95
        2
302
GRIDFORMAT
  1
GRIDFORMAT_BEGIN
 90
        0
 91
        1
 62
     0
 92
       -2
340
14
 93
        0
 40
0.045
309
GRIDFORMAT_END
 95
        4
302
GRIDFORMAT
  1
GRIDFORMAT_BEGIN
 90
        0
 91
        1
 62
     0
 92
       -2
340
14
 93
        0
 40
0.045
309
GRIDFORMAT_END
 95
        8
302
GRIDFORMAT
  1
GRIDFORMAT_BEGIN
 90
        0
 91
        1
 62
     0
 92
       -2
340
14
 93
        0
 40
0.045
309
GRIDFORMAT_END
 95
       16
302
GRIDFORMAT
  1
GRIDFORMAT_BEGIN
 90
        0
 91
        1
 62
     0
 92
       -2
340
14
 93
        0
 40
0.045
309
GRIDFORMAT_END
 95
       32
302
GRIDFORMAT
  1
GRIDFORMAT_BEGIN
 90
        0
 91
        1
 62
     0
 92
       -2
340
14
 93
        0
 40
0.045
309
GRIDFORMAT_END
309
TABLEFORMAT_END
  1
CELLSTYLE_BEGIN
 90
        2
 91
        1
300
_HEADER
309
CELLSTYLE_END
300
CELLSTYLE
  1
TABLEFORMAT_BEGIN
 90
        5
170
     1
 91
        0
 92
        0
 62
   257
 93
        1
300
CONTENTFORMAT
  1
CONTENTFORMAT_BEGIN
 90
        0
 91
        0
 92
        4
 93
        0
300

 40
0.0
140
1.0
 94
        2
 62
     0
340
11
144
0.18
309
CONTENTFORMAT_END
171
     1
301
MARGIN
  1
CELLMARGIN_BEGIN
 40
0.06
 40
0.06
 40
0.06
 40
0.06
 40
0.06
 40
0.06
309
CELLMARGIN_END
 94
        6
 95
        1
302
GRIDFORMAT
  1
GRIDFORMAT_BEGIN
 90
        0
 91
        1
 62
     0
 92
       -2
340
14
 93
        0
 40
0.045
309
GRIDFORMAT_END
 95
        2
302
GRIDFORMAT
  1
GRIDFORMAT_BEGIN
 90
        0
 91
        1
 62
     0
 92
       -2
340
14
 93
        0
 40
0.045
309
GRIDFORMAT_END
 95
        4
302
GRIDFORMAT
  1
GRIDFORMAT_BEGIN
 90
        0
 91
        1
 62
     0
 92
       -2
340
14
 93
        0
 40
0.045
309
GRIDFORMAT_END
 95
        8
302
GRIDFORMAT
  1
GRIDFORMAT_BEGIN
 90
        0
 91
        1
 62
     0
 92
       -2
340
14
 93
        0
 40
0.045
309
GRIDFORMAT_END
 95
       16
302
GRIDFORMAT
  1
GRIDFORMAT_BEGIN
 90
        0
 91
        1
 62
     0
 92
       -2
340
14
 93
        0
 40
0.045
309
GRIDFORMAT_END
 95
       32
302
GRIDFORMAT
  1
GRIDFORMAT_BEGIN
 90
        0
 91
        1
 62
     0
 92
       -2
340
14
 93
        0
 40
0.045
309
GRIDFORMAT_END
309
TABLEFORMAT_END
  1
CELLSTYLE_BEGIN
 90
        3
 91
        2
300
_DATA
309
CELLSTYLE_END
  0
XRECORD
  5
99
102
{ACAD_REACTORS
330
98
102
}
330
98
100
AcDbXrecord
280
     1
102
RTVSPropertyOp0
 70
     1
102
RTVSPropertyOp1
 70
     1
102
RTVSPropertyOp2
 70
     1
102
RTVSPropertyOp3
 70
     1
102
RTVSPropertyOp4
 70
     1
102
RTVSPropertyOp5
 70
     1
102
RTVSPropertyOp6
 70
     1
102
RTVSPropertyOp7
 70
     1
102
RTVSPropertyOp8
 70
     1
102
RTVSPropertyOp9
 70
     1
102
RTVSPropertyOp10
 70
     1
102
RTVSPropertyOp11
 70
     1
102
RTVSPropertyOp12
 70
     1
102
RTVSPropertyOp13
 70
     1
102
RTVSPropertyOp14
 70
     1
102
RTVSPropertyOp15
 70
     1
102
RTVSPropertyOp16
 70
     1
102
RTVSPropertyOp17
 70
     1
102
RTVSPropertyOp18
 70
     1
102
RTVSPropertyOp19
 70
     1
102
RTVSPropertyOp20
 70
     1
102
RTVSPropertyOp21
 70
     1
102
RTVSPropertyOp22
 70
     1
102
RTVSPropertyOp23
 70
     1
102
RTVSPropertyOp24
 70
     1
102
RTVSPropertyOp25
 70
     1
102
RTVSPropertyOp26
 70
     1
102
RTVSPropertyOp27
 70
     1
102
RTVSPropertyOp28
 70
     1
102
RTVSPropertyOp29
 70
     1
102
RTVSPropertyOp30
 70
     1
102
RTVSPropertyOp31
 70
     1
102
RTVSPropertyOp32
 70
     1
102
RTVSPropertyOp33
 70
     1
102
RTVSPropertyOp34
 70
     1
102
RTVSPropertyOp35
 70
     1
102
RTVSPropertyOp36
 70
     1
102
RTVSPropertyOp37
 70
     1
102
RTVSPropertyOp38
 70
     1
102
RTVSPropertyOp39
 70
     1
102
RTVSPropertyOp40
 70
     1
102
RTVSPropertyOp41
 70
     1
102
RTVSPropertyOp42
 70
     1
102
RTVSPropertyOp43
 70
     1
102
RTVSPropertyOp44
 70
     1
102
RTVSPropertyOp45
 70
     1
102
RTVSPropertyOp46
 70
     1
102
RTVSPropertyOp47
 70
     1
102
RTVSPropertyOp48
 70
     1
102
RTVSPropertyOp49
 70
     1
102
RTVSPropertyOp50
 70
     1
102
RTVSPropertyOp51
 70
     0
102
RTVSPropertyOp52
 70
     0
102
RTVSPropertyOp53
 70
     1
102
RTVSPropertyOp54
 70
     1
102
RTVSPropertyOp55
 70
     1
102
RTVSPropertyOp56
 70
     1
102
RTVSPropertyOp57
 70
     1
102
RTVSPost2010Prop28
280
     1
102
RTVSPost2010PropOp28
 70
     1
102
RTVSPost2010Prop29
280
     1
102
RTVSPost2010PropOp29
 70
     1
102
RTVSPost2010Prop30
280
     0
102
RTVSPost2010PropOp30
 70
     1
102
RTVSPost2010Prop31
280
     0
102
RTVSPost2010PropOp31
 70
     1
102
RTVSPost2010Prop32
280
     0
102
RTVSPost2010PropOp32
 70
     1
102
RTVSPost2010Prop33
280
     0
102
RTVSPost2010PropOp33
 70
     1
102
RTVSPost2010Prop34
280
     0
102
RTVSPost2010PropOp34
 70
     1
102
RTVSPost2010Prop35
280
     0
102
RTVSPost2010PropOp35
 70
     1
102
RTVSPost2010Prop36
280
     0
102
RTVSPost2010PropOp36
 70
     1
102
RTVSPost2010Prop37
 90
       50
102
RTVSPost2010PropOp37
 70
     1
102
RTVSPost2010Prop38
140
0.0
102
RTVSPost2010PropOp38
 70
     1
102
RTVSPost2010Prop39
140
1.0
102
RTVSPost2010PropOp39
 70
     1
102
RTVSPost2010Prop40
 90
        0
102
RTVSPost2010PropOp40
 70
     1
102
RTVSPost2010Prop41ColorIndex
 90
       18
102
RTVSPost2010Prop41ColorRGB
 90
        0
102
RTVSPost2010PropOp41
 70
     1
102
RTVSPost2010Prop42
 90
       50
102
RTVSPost2010PropOp42
 70
     1
102
RTVSPost2010Prop43
 90
        3
102
RTVSPost2010PropOp43
 70
     1
102
RTVSPost2010Prop44ColorIndex
 90
        5
102
RTVSPost2010Prop44ColorRGB
 90
      255
102
RTVSPost2010PropOp44
 70
     1
102
RTVSPost2010Prop45
280
     0
102
RTVSPost2010PropOp45
 70
     1
102
RTVSPost2010Prop46
 90
       50
102
RTVSPost2010PropOp46
 70
     1
102
RTVSPost2010Prop47
 90
       50
102
RTVSPost2010PropOp47
 70
     1
102
RTVSPost2010Prop48
 90
       50
102
RTVSPost2010PropOp48
 70
     1
102
RTVSPost2010Prop49
280
     0
102
RTVSPost2010PropOp49
 70
     1
102
RTVSPost2010Prop50
 90
       50
102
RTVSPost2010PropOp50
 70
     1
102
RTVSPost2010Prop51ColorIndex
 90
      256
102
RTVSPost2010Prop51ColorRGB
 90
-16777216
102
RTVSPost2010PropOp51
 70
     0
102
RTVSPost2010Prop52
140
1.0
102
RTVSPost2010PropOp52
 70
     0
102
RTVSPost2010Prop53
 90
        2
102
RTVSPost2010PropOp53
 70
     1
102
RTVSPost2010Prop54
  1
strokes_ogs.tif
102
RTVSPost2010PropOp54
 70
     1
102
RTVSPost2010Prop55
280
     0
102
RTVSPost2010PropOp55
 70
     1
102
RTVSPost2010Prop56
140
1.0
102
RTVSPost2010PropOp56
 70
     1
102
RTVSPost2010Prop57
140
1.0
102
RTVSPost2010PropOp57
 70
     1
  0
XRECORD
  5
9F
102
{ACAD_REACTORS
330
9E
102
}
330
9E
100
AcDbXrecord
280
     1
102
RTVSPropertyOp0
 70
     1
102
RTVSPropertyOp1
 70
     1
102
RTVSPropertyOp2
 70
     1
102
RTVSPropertyOp3
 70
     1
102
RTVSPropertyOp4
 70
     1
102
RTVSPropertyOp5
 70
     1
102
RTVSPropertyOp6
 70
     1
102
RTVSPropertyOp7
 70
     1
102
RTVSPropertyOp8
 70
     1
102
RTVSPropertyOp9
 70
     1
102
RTVSPropertyOp10
 70
     1
102
RTVSPropertyOp11
 70
     1
102
RTVSPropertyOp12
 70
     1
102
RTVSPropertyOp13
 70
     1
102
RTVSPropertyOp14
 70
     1
102
RTVSPropertyOp15
 70
     1
102
RTVSPropertyOp16
 70
     1
102
RTVSPropertyOp17
 70
     1
102
RTVSPropertyOp18
 70
     1
102
RTVSPropertyOp19
 70
     1
102
RTVSPropertyOp20
 70
     1
102
RTVSPropertyOp21
 70
     1
102
RTVSPropertyOp22
 70
     1
102
RTVSPropertyOp23
 70
     1
102
RTVSPropertyOp24
 70
     1
102
RTVSPropertyOp25
 70
     1
102
RTVSPropertyOp26
 70
     1
102
RTVSPropertyOp27
 70
     1
102
RTVSPropertyOp28
 70
     1
102
RTVSPropertyOp29
 70
     1
102
RTVSPropertyOp30
 70
     1
102
RTVSPropertyOp31
 70
     1
102
RTVSPropertyOp32
 70
     1
102
RTVSPropertyOp33
 70
     1
102
RTVSPropertyOp34
 70
     1
102
RTVSPropertyOp35
 70
     1
102
RTVSPropertyOp36
 70
     1
102
RTVSPropertyOp37
 70
     1
102
RTVSPropertyOp38
 70
     1
102
RTVSPropertyOp39
 70
     1
102
RTVSPropertyOp40
 70
     1
102
RTVSPropertyOp41
 70
     1
102
RTVSPropertyOp42
 70
     1
102
RTVSPropertyOp43
 70
     1
102
RTVSPropertyOp44
 70
     1
102
RTVSPropertyOp45
 70
     1
102
RTVSPropertyOp46
 70
     1
102
RTVSPropertyOp47
 70
     1
102
RTVSPropertyOp48
 70
     1
102
RTVSPropertyOp49
 70
     1
102
RTVSPropertyOp50
 70
     1
102
RTVSPropertyOp51
 70
     0
102
RTVSPropertyOp52
 70
     0
102
RTVSPropertyOp53
 70
     1
102
RTVSPropertyOp54
 70
     1
102
RTVSPropertyOp55
 70
     1
102
RTVSPropertyOp56
 70
     1
102
RTVSPropertyOp57
 70
     1
102
RTVSPost2010Prop28
280
     0
102
RTVSPost2010PropOp28
 70
     1
102
RTVSPost2010Prop29
280
     1
102
RTVSPost2010PropOp29
 70
     1
102
RTVSPost2010Prop30
280
     1
102
RTVSPost2010PropOp30
 70
     1
102
RTVSPost2010Prop31
280
     0
102
RTVSPost2010PropOp31
 70
     1
102
RTVSPost2010Prop32
280
     0
102
RTVSPost2010PropOp32
 70
     1
102
RTVSPost2010Prop33
280
     0
102
RTVSPost2010PropOp33
 70
     1
102
RTVSPost2010Prop34
280
     0
102
RTVSPost2010PropOp34
 70
     1
102
RTVSPost2010Prop35
280
     0
102
RTVSPost2010PropOp35
 70
     1
102
RTVSPost2010Prop36
280
     0
102
RTVSPost2010PropOp36
 70
     1
102
RTVSPost2010Prop37
 90
       50
102
RTVSPost2010PropOp37
 70
     1
102
RTVSPost2010Prop38
140
0.0
102
RTVSPost2010PropOp38
 70
     1
102
RTVSPost2010Prop39
140
1.0
102
RTVSPost2010PropOp39
 70
     1
102
RTVSPost2010Prop40
 90
        0
102
RTVSPost2010PropOp40
 70
     1
102
RTVSPost2010Prop41ColorIndex
 90
       18
102
RTVSPost2010Prop41ColorRGB
 90
        0
102
RTVSPost2010PropOp41
 70
     1
102
RTVSPost2010Prop42
 90
       50
102
RTVSPost2010PropOp42
 70
     1
102
RTVSPost2010Prop43
 90
        3
102
RTVSPost2010PropOp43
 70
     1
102
RTVSPost2010Prop44ColorIndex
 90
        5
102
RTVSPost2010Prop44ColorRGB
 90
      255
102
RTVSPost2010PropOp44
 70
     1
102
RTVSPost2010Prop45
280
     0
102
RTVSPost2010PropOp45
 70
     1
102
RTVSPost2010Prop46
 90
       50
102
RTVSPost2010PropOp46
 70
     1
102
RTVSPost2010Prop47
 90
       50
102
RTVSPost2010PropOp47
 70
     1
102
RTVSPost2010Prop48
 90
       50
102
RTVSPost2010PropOp48
 70
     1
102
RTVSPost2010Prop49
280
     0
102
RTVSPost2010PropOp49
 70
     1
102
RTVSPost2010Prop50
 90
       50
102
RTVSPost2010PropOp50
 70
     1
102
RTVSPost2010Prop51ColorIndex
 90
      256
102
RTVSPost2010Prop51ColorRGB
 90
-16777216
102
RTVSPost2010PropOp51
 70
     0
102
RTVSPost2010Prop52
140
1.0
102
RTVSPost2010PropOp52
 70
     0
102
RTVSPost2010Prop53
 90
        2
102
RTVSPost2010PropOp53
 70
     1
102
RTVSPost2010Prop54
  1
strokes_ogs.tif
102
RTVSPost2010PropOp54
 70
     1
102
RTVSPost2010Prop55
280
     0
102
RTVSPost2010PropOp55
 70
     1
102
RTVSPost2010Prop56
140
1.0
102
RTVSPost2010PropOp56
 70
     1
102
RTVSPost2010Prop57
140
1.0
102
RTVSPost2010PropOp57
 70
     1
  0
XRECORD
  5
A7
102
{ACAD_REACTORS
330
A6
102
}
330
A6
100
AcDbXrecord
280
     1
102
RTVSPropertyOp0
 70
     1
102
RTVSPropertyOp1
 70
     1
102
RTVSPropertyOp2
 70
     1
102
RTVSPropertyOp3
 70
     1
102
RTVSPropertyOp4
 70
     1
102
RTVSPropertyOp5
 70
     1
102
RTVSPropertyOp6
 70
     1
102
RTVSPropertyOp7
 70
     1
102
RTVSPropertyOp8
 70
     1
102
RTVSPropertyOp9
 70
     1
102
RTVSPropertyOp10
 70
     1
102
RTVSPropertyOp11
 70
     1
102
RTVSPropertyOp12
 70
     1
102
RTVSPropertyOp13
 70
     1
102
RTVSPropertyOp14
 70
     1
102
RTVSPropertyOp15
 70
     1
102
RTVSPropertyOp16
 70
     1
102
RTVSPropertyOp17
 70
     1
102
RTVSPropertyOp18
 70
     1
102
RTVSPropertyOp19
 70
     1
102
RTVSPropertyOp20
 70
     1
102
RTVSPropertyOp21
 70
     1
102
RTVSPropertyOp22
 70
     1
102
RTVSPropertyOp23
 70
     1
102
RTVSPropertyOp24
 70
     1
102
RTVSPropertyOp25
 70
     1
102
RTVSPropertyOp26
 70
     1
102
RTVSPropertyOp27
 70
     1
102
RTVSPropertyOp28
 70
     1
102
RTVSPropertyOp29
 70
     1
102
RTVSPropertyOp30
 70
     1
102
RTVSPropertyOp31
 70
     1
102
RTVSPropertyOp32
 70
     1
102
RTVSPropertyOp33
 70
     1
102
RTVSPropertyOp34
 70
     1
102
RTVSPropertyOp35
 70
     1
102
RTVSPropertyOp36
 70
     1
102
RTVSPropertyOp37
 70
     1
102
RTVSPropertyOp38
 70
     1
102
RTVSPropertyOp39
 70
     1
102
RTVSPropertyOp40
 70
     1
102
RTVSPropertyOp41
 70
     1
102
RTVSPropertyOp42
 70
     1
102
RTVSPropertyOp43
 70
     1
102
RTVSPropertyOp44
 70
     1
102
RTVSPropertyOp45
 70
     1
102
RTVSPropertyOp46
 70
     1
102
RTVSPropertyOp47
 70
     1
102
RTVSPropertyOp48
 70
     1
102
RTVSPropertyOp49
 70
     1
102
RTVSPropertyOp50
 70
     1
102
RTVSPropertyOp51
 70
     0
102
RTVSPropertyOp52
 70
     0
102
RTVSPropertyOp53
 70
     1
102
RTVSPropertyOp54
 70
     1
102
RTVSPropertyOp55
 70
     1
102
RTVSPropertyOp56
 70
     1
102
RTVSPropertyOp57
 70
     1
102
RTVSPost2010Prop28
280
     0
102
RTVSPost2010PropOp28
 70
     1
102
RTVSPost2010Prop29
280
     1
102
RTVSPost2010PropOp29
 70
     1
102
RTVSPost2010Prop30
280
     1
102
RTVSPost2010PropOp30
 70
     1
102
RTVSPost2010Prop31
280
     0
102
RTVSPost2010PropOp31
 70
     1
102
RTVSPost2010Prop32
280
     0
102
RTVSPost2010PropOp32
 70
     1
102
RTVSPost2010Prop33
280
     0
102
RTVSPost2010PropOp33
 70
     1
102
RTVSPost2010Prop34
280
     0
102
RTVSPost2010PropOp34
 70
     1
102
RTVSPost2010Prop35
280
     0
102
RTVSPost2010PropOp35
 70
     1
102
RTVSPost2010Prop36
280
     0
102
RTVSPost2010PropOp36
 70
     1
102
RTVSPost2010Prop37
 90
       50
102
RTVSPost2010PropOp37
 70
     1
102
RTVSPost2010Prop38
140
0.0
102
RTVSPost2010PropOp38
 70
     1
102
RTVSPost2010Prop39
140
1.0
102
RTVSPost2010PropOp39
 70
     1
102
RTVSPost2010Prop40
 90
        0
102
RTVSPost2010PropOp40
 70
     1
102
RTVSPost2010Prop41ColorIndex
 90
       18
102
RTVSPost2010Prop41ColorRGB
 90
        0
102
RTVSPost2010PropOp41
 70
     1
102
RTVSPost2010Prop42
 90
       50
102
RTVSPost2010PropOp42
 70
     1
102
RTVSPost2010Prop43
 90
        3
102
RTVSPost2010PropOp43
 70
     1
102
RTVSPost2010Prop44ColorIndex
 90
        5
102
RTVSPost2010Prop44ColorRGB
 90
      255
102
RTVSPost2010PropOp44
 70
     1
102
RTVSPost2010Prop45
280
     0
102
RTVSPost2010PropOp45
 70
     1
102
RTVSPost2010Prop46
 90
       50
102
RTVSPost2010PropOp46
 70
     1
102
RTVSPost2010Prop47
 90
       50
102
RTVSPost2010PropOp47
 70
     1
102
RTVSPost2010Prop48
 90
       50
102
RTVSPost2010PropOp48
 70
     1
102
RTVSPost2010Prop49
280
     0
102
RTVSPost2010PropOp49
 70
     1
102
RTVSPost2010Prop50
 90
       50
102
RTVSPost2010PropOp50
 70
     1
102
RTVSPost2010Prop51ColorIndex
 90
      256
102
RTVSPost2010Prop51ColorRGB
 90
-16777216
102
RTVSPost2010PropOp51
 70
     0
102
RTVSPost2010Prop52
140
1.0
102
RTVSPost2010PropOp52
 70
     0
102
RTVSPost2010Prop53
 90
        2
102
RTVSPost2010PropOp53
 70
     1
102
RTVSPost2010Prop54
  1
strokes_ogs.tif
102
RTVSPost2010PropOp54
 70
     1
102
RTVSPost2010Prop55
280
     0
102
RTVSPost2010PropOp55
 70
     1
102
RTVSPost2010Prop56
140
1.0
102
RTVSPost2010PropOp56
 70
     1
102
RTVSPost2010Prop57
140
1.0
102
RTVSPost2010PropOp57
 70
     1
  0
XRECORD
  5
AF
102
{ACAD_REACTORS
330
AE
102
}
330
AE
100
AcDbXrecord
280
     1
102
RTVSPropertyOp0
 70
     1
102
RTVSPropertyOp1
 70
     1
102
RTVSPropertyOp2
 70
     1
102
RTVSPropertyOp3
 70
     1
102
RTVSPropertyOp4
 70
     1
102
RTVSPropertyOp5
 70
     1
102
RTVSPropertyOp6
 70
     1
102
RTVSPropertyOp7
 70
     1
102
RTVSPropertyOp8
 70
     1
102
RTVSPropertyOp9
 70
     1
102
RTVSPropertyOp10
 70
     1
102
RTVSPropertyOp11
 70
     1
102
RTVSPropertyOp12
 70
     1
102
RTVSPropertyOp13
 70
     1
102
RTVSPropertyOp14
 70
     1
102
RTVSPropertyOp15
 70
     1
102
RTVSPropertyOp16
 70
     1
102
RTVSPropertyOp17
 70
     1
102
RTVSPropertyOp18
 70
     1
102
RTVSPropertyOp19
 70
     1
102
RTVSPropertyOp20
 70
     1
102
RTVSPropertyOp21
 70
     1
102
RTVSPropertyOp22
 70
     1
102
RTVSPropertyOp23
 70
     1
102
RTVSPropertyOp24
 70
     1
102
RTVSPropertyOp25
 70
     1
102
RTVSPropertyOp26
 70
     1
102
RTVSPropertyOp27
 70
     1
102
RTVSPropertyOp28
 70
     1
102
RTVSPropertyOp29
 70
     1
102
RTVSPropertyOp30
 70
     1
102
RTVSPropertyOp31
 70
     1
102
RTVSPropertyOp32
 70
     1
102
RTVSPropertyOp33
 70
     1
102
RTVSPropertyOp34
 70
     1
102
RTVSPropertyOp35
 70
     1
102
RTVSPropertyOp36
 70
     1
102
RTVSPropertyOp37
 70
     1
102
RTVSPropertyOp38
 70
     1
102
RTVSPropertyOp39
 70
     1
102
RTVSPropertyOp40
 70
     1
102
RTVSPropertyOp41
 70
     1
102
RTVSPropertyOp42
 70
     1
102
RTVSPropertyOp43
 70
     1
102
RTVSPropertyOp44
 70
     1
102
RTVSPropertyOp45
 70
     1
102
RTVSPropertyOp46
 70
     1
102
RTVSPropertyOp47
 70
     1
102
RTVSPropertyOp48
 70
     1
102
RTVSPropertyOp49
 70
     1
102
RTVSPropertyOp50
 70
     1
102
RTVSPropertyOp51
 70
     0
102
RTVSPropertyOp52
 70
     0
102
RTVSPropertyOp53
 70
     1
102
RTVSPropertyOp54
 70
     1
102
RTVSPropertyOp55
 70
     1
102
RTVSPropertyOp56
 70
     1
102
RTVSPropertyOp57
 70
     1
102
RTVSPost2010Prop28
280
     0
102
RTVSPost2010PropOp28
 70
     1
102
RTVSPost2010Prop29
280
     1
102
RTVSPost2010PropOp29
 70
     1
102
RTVSPost2010Prop30
280
     1
102
RTVSPost2010PropOp30
 70
     1
102
RTVSPost2010Prop31
280
     0
102
RTVSPost2010PropOp31
 70
     1
102
RTVSPost2010Prop32
280
     0
102
RTVSPost2010PropOp32
 70
     1
102
RTVSPost2010Prop33
280
     0
102
RTVSPost2010PropOp33
 70
     1
102
RTVSPost2010Prop34
280
     0
102
RTVSPost2010PropOp34
 70
     1
102
RTVSPost2010Prop35
280
     0
102
RTVSPost2010PropOp35
 70
     1
102
RTVSPost2010Prop36
280
     0
102
RTVSPost2010PropOp36
 70
     1
102
RTVSPost2010Prop37
 90
       50
102
RTVSPost2010PropOp37
 70
     1
102
RTVSPost2010Prop38
140
0.0
102
RTVSPost2010PropOp38
 70
     1
102
RTVSPost2010Prop39
140
1.0
102
RTVSPost2010PropOp39
 70
     1
102
RTVSPost2010Prop40
 90
        0
102
RTVSPost2010PropOp40
 70
     1
102
RTVSPost2010Prop41ColorIndex
 90
       18
102
RTVSPost2010Prop41ColorRGB
 90
        0
102
RTVSPost2010PropOp41
 70
     1
102
RTVSPost2010Prop42
 90
       50
102
RTVSPost2010PropOp42
 70
     1
102
RTVSPost2010Prop43
 90
        3
102
RTVSPost2010PropOp43
 70
     1
102
RTVSPost2010Prop44ColorIndex
 90
        5
102
RTVSPost2010Prop44ColorRGB
 90
      255
102
RTVSPost2010PropOp44
 70
     1
102
RTVSPost2010Prop45
280
     0
102
RTVSPost2010PropOp45
 70
     1
102
RTVSPost2010Prop46
 90
       50
102
RTVSPost2010PropOp46
 70
     1
102
RTVSPost2010Prop47
 90
       50
102
RTVSPost2010PropOp47
 70
     1
102
RTVSPost2010Prop48
 90
       50
102
RTVSPost2010PropOp48
 70
     1
102
RTVSPost2010Prop49
280
     0
102
RTVSPost2010PropOp49
 70
     1
102
RTVSPost2010Prop50
 90
       50
102
RTVSPost2010PropOp50
 70
     1
102
RTVSPost2010Prop51ColorIndex
 90
      256
102
RTVSPost2010Prop51ColorRGB
 90
-16777216
102
RTVSPost2010PropOp51
 70
     0
102
RTVSPost2010Prop52
140
1.0
102
RTVSPost2010PropOp52
 70
     0
102
RTVSPost2010Prop53
 90
        2
102
RTVSPost2010PropOp53
 70
     1
102
RTVSPost2010Prop54
  1
strokes_ogs.tif
102
RTVSPost2010PropOp54
 70
     1
102
RTVSPost2010Prop55
280
     0
102
RTVSPost2010PropOp55
 70
     1
102
RTVSPost2010Prop56
140
1.0
102
RTVSPost2010PropOp56
 70
     1
102
RTVSPost2010Prop57
140
1.0
102
RTVSPost2010PropOp57
 70
     1
  0
XRECORD
  5
A3
102
{ACAD_REACTORS
330
A2
102
}
330
A2
100
AcDbXrecord
280
     1
102
RTVSPropertyOp0
 70
     1
102
RTVSPropertyOp1
 70
     1
102
RTVSPropertyOp2
 70
     1
102
RTVSPropertyOp3
 70
     1
102
RTVSPropertyOp4
 70
     1
102
RTVSPropertyOp5
 70
     1
102
RTVSPropertyOp6
 70
     1
102
RTVSPropertyOp7
 70
     1
102
RTVSPropertyOp8
 70
     1
102
RTVSPropertyOp9
 70
     1
102
RTVSPropertyOp10
 70
     1
102
RTVSPropertyOp11
 70
     1
102
RTVSPropertyOp12
 70
     1
102
RTVSPropertyOp13
 70
     1
102
RTVSPropertyOp14
 70
     1
102
RTVSPropertyOp15
 70
     1
102
RTVSPropertyOp16
 70
     1
102
RTVSPropertyOp17
 70
     1
102
RTVSPropertyOp18
 70
     1
102
RTVSPropertyOp19
 70
     1
102
RTVSPropertyOp20
 70
     1
102
RTVSPropertyOp21
 70
     1
102
RTVSPropertyOp22
 70
     1
102
RTVSPropertyOp23
 70
     1
102
RTVSPropertyOp24
 70
     1
102
RTVSPropertyOp25
 70
     1
102
RTVSPropertyOp26
 70
     1
102
RTVSPropertyOp27
 70
     1
102
RTVSPropertyOp28
 70
     1
102
RTVSPropertyOp29
 70
     1
102
RTVSPropertyOp30
 70
     1
102
RTVSPropertyOp31
 70
     1
102
RTVSPropertyOp32
 70
     1
102
RTVSPropertyOp33
 70
     1
102
RTVSPropertyOp34
 70
     1
102
RTVSPropertyOp35
 70
     1
102
RTVSPropertyOp36
 70
     1
102
RTVSPropertyOp37
 70
     1
102
RTVSPropertyOp38
 70
     1
102
RTVSPropertyOp39
 70
     1
102
RTVSPropertyOp40
 70
     1
102
RTVSPropertyOp41
 70
     1
102
RTVSPropertyOp42
 70
     1
102
RTVSPropertyOp43
 70
     1
102
RTVSPropertyOp44
 70
     1
102
RTVSPropertyOp45
 70
     1
102
RTVSPropertyOp46
 70
     1
102
RTVSPropertyOp47
 70
     1
102
RTVSPropertyOp48
 70
     1
102
RTVSPropertyOp49
 70
     1
102
RTVSPropertyOp50
 70
     1
102
RTVSPropertyOp51
 70
     0
102
RTVSPropertyOp52
 70
     0
102
RTVSPropertyOp53
 70
     1
102
RTVSPropertyOp54
 70
     1
102
RTVSPropertyOp55
 70
     1
102
RTVSPropertyOp56
 70
     1
102
RTVSPropertyOp57
 70
     1
102
RTVSPost2010Prop28
280
     0
102
RTVSPost2010PropOp28
 70
     1
102
RTVSPost2010Prop29
280
     1
102
RTVSPost2010PropOp29
 70
     1
102
RTVSPost2010Prop30
280
     1
102
RTVSPost2010PropOp30
 70
     1
102
RTVSPost2010Prop31
280
     0
102
RTVSPost2010PropOp31
 70
     1
102
RTVSPost2010Prop32
280
     0
102
RTVSPost2010PropOp32
 70
     1
102
RTVSPost2010Prop33
280
     0
102
RTVSPost2010PropOp33
 70
     1
102
RTVSPost2010Prop34
280
     0
102
RTVSPost2010PropOp34
 70
     1
102
RTVSPost2010Prop35
280
     0
102
RTVSPost2010PropOp35
 70
     1
102
RTVSPost2010Prop36
280
     0
102
RTVSPost2010PropOp36
 70
     1
102
RTVSPost2010Prop37
 90
       50
102
RTVSPost2010PropOp37
 70
     1
102
RTVSPost2010Prop38
140
0.0
102
RTVSPost2010PropOp38
 70
     1
102
RTVSPost2010Prop39
140
1.0
102
RTVSPost2010PropOp39
 70
     1
102
RTVSPost2010Prop40
 90
        0
102
RTVSPost2010PropOp40
 70
     1
102
RTVSPost2010Prop41ColorIndex
 90
       18
102
RTVSPost2010Prop41ColorRGB
 90
        0
102
RTVSPost2010PropOp41
 70
     1
102
RTVSPost2010Prop42
 90
       50
102
RTVSPost2010PropOp42
 70
     1
102
RTVSPost2010Prop43
 90
        3
102
RTVSPost2010PropOp43
 70
     1
102
RTVSPost2010Prop44ColorIndex
 90
        5
102
RTVSPost2010Prop44ColorRGB
 90
      255
102
RTVSPost2010PropOp44
 70
     1
102
RTVSPost2010Prop45
280
     0
102
RTVSPost2010PropOp45
 70
     1
102
RTVSPost2010Prop46
 90
       50
102
RTVSPost2010PropOp46
 70
     1
102
RTVSPost2010Prop47
 90
       50
102
RTVSPost2010PropOp47
 70
     1
102
RTVSPost2010Prop48
 90
       50
102
RTVSPost2010PropOp48
 70
     1
102
RTVSPost2010Prop49
280
     0
102
RTVSPost2010PropOp49
 70
     1
102
RTVSPost2010Prop50
 90
       50
102
RTVSPost2010PropOp50
 70
     1
102
RTVSPost2010Prop51ColorIndex
 90
      256
102
RTVSPost2010Prop51ColorRGB
 90
-16777216
102
RTVSPost2010PropOp51
 70
     0
102
RTVSPost2010Prop52
140
1.0
102
RTVSPost2010PropOp52
 70
     0
102
RTVSPost2010Prop53
 90
        2
102
RTVSPost2010PropOp53
 70
     1
102
RTVSPost2010Prop54
  1
strokes_ogs.tif
102
RTVSPost2010PropOp54
 70
     1
102
RTVSPost2010Prop55
280
     0
102
RTVSPost2010PropOp55
 70
     1
102
RTVSPost2010Prop56
140
1.0
102
RTVSPost2010PropOp56
 70
     1
102
RTVSPost2010Prop57
140
1.0
102
RTVSPost2010PropOp57
 70
     1
  0
XRECORD
  5
A5
102
{ACAD_REACTORS
330
A4
102
}
330
A4
100
AcDbXrecord
280
     1
102
RTVSPropertyOp0
 70
     1
102
RTVSPropertyOp1
 70
     1
102
RTVSPropertyOp2
 70
     1
102
RTVSPropertyOp3
 70
     1
102
RTVSPropertyOp4
 70
     1
102
RTVSPropertyOp5
 70
     1
102
RTVSPropertyOp6
 70
     1
102
RTVSPropertyOp7
 70
     1
102
RTVSPropertyOp8
 70
     1
102
RTVSPropertyOp9
 70
     1
102
RTVSPropertyOp10
 70
     1
102
RTVSPropertyOp11
 70
     1
102
RTVSPropertyOp12
 70
     1
102
RTVSPropertyOp13
 70
     1
102
RTVSPropertyOp14
 70
     1
102
RTVSPropertyOp15
 70
     1
102
RTVSPropertyOp16
 70
     1
102
RTVSPropertyOp17
 70
     1
102
RTVSPropertyOp18
 70
     1
102
RTVSPropertyOp19
 70
     1
102
RTVSPropertyOp20
 70
     1
102
RTVSPropertyOp21
 70
     1
102
RTVSPropertyOp22
 70
     1
102
RTVSPropertyOp23
 70
     1
102
RTVSPropertyOp24
 70
     1
102
RTVSPropertyOp25
 70
     1
102
RTVSPropertyOp26
 70
     1
102
RTVSPropertyOp27
 70
     1
102
RTVSPropertyOp28
 70
     1
102
RTVSPropertyOp29
 70
     1
102
RTVSPropertyOp30
 70
     1
102
RTVSPropertyOp31
 70
     1
102
RTVSPropertyOp32
 70
     1
102
RTVSPropertyOp33
 70
     1
102
RTVSPropertyOp34
 70
     1
102
RTVSPropertyOp35
 70
     1
102
RTVSPropertyOp36
 70
     1
102
RTVSPropertyOp37
 70
     1
102
RTVSPropertyOp38
 70
     1
102
RTVSPropertyOp39
 70
     1
102
RTVSPropertyOp40
 70
     1
102
RTVSPropertyOp41
 70
     1
102
RTVSPropertyOp42
 70
     1
102
RTVSPropertyOp43
 70
     1
102
RTVSPropertyOp44
 70
     1
102
RTVSPropertyOp45
 70
     1
102
RTVSPropertyOp46
 70
     1
102
RTVSPropertyOp47
 70
     1
102
RTVSPropertyOp48
 70
     1
102
RTVSPropertyOp49
 70
     1
102
RTVSPropertyOp50
 70
     1
102
RTVSPropertyOp51
 70
     0
102
RTVSPropertyOp52
 70
     0
102
RTVSPropertyOp53
 70
     1
102
RTVSPropertyOp54
 70
     1
102
RTVSPropertyOp55
 70
     1
102
RTVSPropertyOp56
 70
     1
102
RTVSPropertyOp57
 70
     1
102
RTVSPost2010Prop28
280
     0
102
RTVSPost2010PropOp28
 70
     1
102
RTVSPost2010Prop29
280
     1
102
RTVSPost2010PropOp29
 70
     1
102
RTVSPost2010Prop30
280
     1
102
RTVSPost2010PropOp30
 70
     1
102
RTVSPost2010Prop31
280
     0
102
RTVSPost2010PropOp31
 70
     1
102
RTVSPost2010Prop32
280
     0
102
RTVSPost2010PropOp32
 70
     1
102
RTVSPost2010Prop33
280
     0
102
RTVSPost2010PropOp33
 70
     1
102
RTVSPost2010Prop34
280
     0
102
RTVSPost2010PropOp34
 70
     1
102
RTVSPost2010Prop35
280
     0
102
RTVSPost2010PropOp35
 70
     1
102
RTVSPost2010Prop36
280
     0
102
RTVSPost2010PropOp36
 70
     1
102
RTVSPost2010Prop37
 90
       50
102
RTVSPost2010PropOp37
 70
     1
102
RTVSPost2010Prop38
140
0.0
102
RTVSPost2010PropOp38
 70
     1
102
RTVSPost2010Prop39
140
1.0
102
RTVSPost2010PropOp39
 70
     1
102
RTVSPost2010Prop40
 90
        0
102
RTVSPost2010PropOp40
 70
     1
102
RTVSPost2010Prop41ColorIndex
 90
       18
102
RTVSPost2010Prop41ColorRGB
 90
        0
102
RTVSPost2010PropOp41
 70
     1
102
RTVSPost2010Prop42
 90
       50
102
RTVSPost2010PropOp42
 70
     1
102
RTVSPost2010Prop43
 90
        3
102
RTVSPost2010PropOp43
 70
     1
102
RTVSPost2010Prop44ColorIndex
 90
        5
102
RTVSPost2010Prop44ColorRGB
 90
      255
102
RTVSPost2010PropOp44
 70
     1
102
RTVSPost2010Prop45
280
     0
102
RTVSPost2010PropOp45
 70
     1
102
RTVSPost2010Prop46
 90
       50
102
RTVSPost2010PropOp46
 70
     1
102
RTVSPost2010Prop47
 90
       50
102
RTVSPost2010PropOp47
 70
     1
102
RTVSPost2010Prop48
 90
       50
102
RTVSPost2010PropOp48
 70
     1
102
RTVSPost2010Prop49
280
     0
102
RTVSPost2010PropOp49
 70
     1
102
RTVSPost2010Prop50
 90
       50
102
RTVSPost2010PropOp50
 70
     1
102
RTVSPost2010Prop51ColorIndex
 90
      256
102
RTVSPost2010Prop51ColorRGB
 90
-16777216
102
RTVSPost2010PropOp51
 70
     0
102
RTVSPost2010Prop52
140
1.0
102
RTVSPost2010PropOp52
 70
     0
102
RTVSPost2010Prop53
 90
        2
102
RTVSPost2010PropOp53
 70
     1
102
RTVSPost2010Prop54
  1
strokes_ogs.tif
102
RTVSPost2010PropOp54
 70
     1
102
RTVSPost2010Prop55
280
     0
102
RTVSPost2010PropOp55
 70
     1
102
RTVSPost2010Prop56
140
1.0
102
RTVSPost2010PropOp56
 70
     1
102
RTVSPost2010Prop57
140
1.0
102
RTVSPost2010PropOp57
 70
     1
  0
XRECORD
  5
B5
102
{ACAD_REACTORS
330
B4
102
}
330
B4
100
AcDbXrecord
280
     1
102
RTVSPropertyOp0
 70
     0
102
RTVSPropertyOp1
 70
     0
102
RTVSPropertyOp2
 70
     0
102
RTVSPropertyOp3
 70
     0
102
RTVSPropertyOp4
 70
     0
102
RTVSPropertyOp5
 70
     0
102
RTVSPropertyOp6
 70
     0
102
RTVSPropertyOp7
 70
     0
102
RTVSPropertyOp8
 70
     0
102
RTVSPropertyOp9
 70
     0
102
RTVSPropertyOp10
 70
     0
102
RTVSPropertyOp11
 70
     0
102
RTVSPropertyOp12
 70
     0
102
RTVSPropertyOp13
 70
     0
102
RTVSPropertyOp14
 70
     2
102
RTVSPropertyOp15
 70
     0
102
RTVSPropertyOp16
 70
     0
102
RTVSPropertyOp17
 70
     0
102
RTVSPropertyOp18
 70
     0
102
RTVSPropertyOp19
 70
     0
102
RTVSPropertyOp20
 70
     0
102
RTVSPropertyOp21
 70
     0
102
RTVSPropertyOp22
 70
     0
102
RTVSPropertyOp23
 70
     0
102
RTVSPropertyOp24
 70
     0
102
RTVSPropertyOp25
 70
     0
102
RTVSPropertyOp26
 70
     0
102
RTVSPropertyOp27
 70
     0
102
RTVSPropertyOp28
 70
     0
102
RTVSPropertyOp29
 70
     0
102
RTVSPropertyOp30
 70
     0
102
RTVSPropertyOp31
 70
     0
102
RTVSPropertyOp32
 70
     0
102
RTVSPropertyOp33
 70
     0
102
RTVSPropertyOp34
 70
     0
102
RTVSPropertyOp35
 70
     0
102
RTVSPropertyOp36
 70
     0
102
RTVSPropertyOp37
 70
     0
102
RTVSPropertyOp38
 70
     0
102
RTVSPropertyOp39
 70
     0
102
RTVSPropertyOp40
 70
     0
102
RTVSPropertyOp41
 70
     0
102
RTVSPropertyOp42
 70
     0
102
RTVSPropertyOp43
 70
     0
102
RTVSPropertyOp44
 70
     0
102
RTVSPropertyOp45
 70
     0
102
RTVSPropertyOp46
 70
     0
102
RTVSPropertyOp47
 70
     0
102
RTVSPropertyOp48
 70
     0
102
RTVSPropertyOp49
 70
     0
102
RTVSPropertyOp50
 70
     0
102
RTVSPropertyOp51
 70
     0
102
RTVSPropertyOp52
 70
     0
102
RTVSPropertyOp53
 70
     0
102
RTVSPropertyOp54
 70
     0
102
RTVSPropertyOp55
 70
     0
102
RTVSPropertyOp56
 70
     0
102
RTVSPropertyOp57
 70
     0
102
RTVSPost2010Prop28
280
     0
102
RTVSPost2010PropOp28
 70
     0
102
RTVSPost2010Prop29
280
     1
102
RTVSPost2010PropOp29
 70
     0
102
RTVSPost2010Prop30
280
     1
102
RTVSPost2010PropOp30
 70
     0
102
RTVSPost2010Prop31
280
     0
102
RTVSPost2010PropOp31
 70
     0
102
RTVSPost2010Prop32
280
     0
102
RTVSPost2010PropOp32
 70
     0
102
RTVSPost2010Prop33
280
     0
102
RTVSPost2010PropOp33
 70
     0
102
RTVSPost2010Prop34
280
     0
102
RTVSPost2010PropOp34
 70
     0
102
RTVSPost2010Prop35
280
     0
102
RTVSPost2010PropOp35
 70
     0
102
RTVSPost2010Prop36
280
     0
102
RTVSPost2010PropOp36
 70
     0
102
RTVSPost2010Prop37
 90
       50
102
RTVSPost2010PropOp37
 70
     0
102
RTVSPost2010Prop38
140
0.0
102
RTVSPost2010PropOp38
 70
     0
102
RTVSPost2010Prop39
140
1.0
102
RTVSPost2010PropOp39
 70
     0
102
RTVSPost2010Prop40
 90
        0
102
RTVSPost2010PropOp40
 70
     0
102
RTVSPost2010Prop41ColorIndex
 90
       18
102
RTVSPost2010Prop41ColorRGB
 90
        0
102
RTVSPost2010PropOp41
 70
     0
102
RTVSPost2010Prop42
 90
       50
102
RTVSPost2010PropOp42
 70
     0
102
RTVSPost2010Prop43
 90
        3
102
RTVSPost2010PropOp43
 70
     0
102
RTVSPost2010Prop44ColorIndex
 90
        5
102
RTVSPost2010Prop44ColorRGB
 90
      255
102
RTVSPost2010PropOp44
 70
     0
102
RTVSPost2010Prop45
280
     0
102
RTVSPost2010PropOp45
 70
     0
102
RTVSPost2010Prop46
 90
       50
102
RTVSPost2010PropOp46
 70
     0
102
RTVSPost2010Prop47
 90
       50
102
RTVSPost2010PropOp47
 70
     0
102
RTVSPost2010Prop48
 90
       50
102
RTVSPost2010PropOp48
 70
     0
102
RTVSPost2010Prop49
280
     0
102
RTVSPost2010PropOp49
 70
     0
102
RTVSPost2010Prop50
 90
       50
102
RTVSPost2010PropOp50
 70
     0
102
RTVSPost2010Prop51ColorIndex
 90
      256
102
RTVSPost2010Prop51ColorRGB
 90
-16777216
102
RTVSPost2010PropOp51
 70
     0
102
RTVSPost2010Prop52
140
1.0
102
RTVSPost2010PropOp52
 70
     0
102
RTVSPost2010Prop53
 90
        2
102
RTVSPost2010PropOp53
 70
     0
102
RTVSPost2010Prop54
  1
strokes_ogs.tif
102
RTVSPost2010PropOp54
 70
     0
102
RTVSPost2010Prop55
280
     0
102
RTVSPost2010PropOp55
 70
     0
102
RTVSPost2010Prop56
140
1.0
102
RTVSPost2010PropOp56
 70
     0
102
RTVSPost2010Prop57
140
1.0
102
RTVSPost2010PropOp57
 70
     0
  0
XRECORD
  5
AD
102
{ACAD_REACTORS
330
AC
102
}
330
AC
100
AcDbXrecord
280
     1
102
RTVSPropertyOp0
 70
     1
102
RTVSPropertyOp1
 70
     1
102
RTVSPropertyOp2
 70
     1
102
RTVSPropertyOp3
 70
     1
102
RTVSPropertyOp4
 70
     1
102
RTVSPropertyOp5
 70
     1
102
RTVSPropertyOp6
 70
     1
102
RTVSPropertyOp7
 70
     1
102
RTVSPropertyOp8
 70
     1
102
RTVSPropertyOp9
 70
     1
102
RTVSPropertyOp10
 70
     1
102
RTVSPropertyOp11
 70
     1
102
RTVSPropertyOp12
 70
     1
102
RTVSPropertyOp13
 70
     1
102
RTVSPropertyOp14
 70
     1
102
RTVSPropertyOp15
 70
     1
102
RTVSPropertyOp16
 70
     1
102
RTVSPropertyOp17
 70
     1
102
RTVSPropertyOp18
 70
     1
102
RTVSPropertyOp19
 70
     1
102
RTVSPropertyOp20
 70
     1
102
RTVSPropertyOp21
 70
     1
102
RTVSPropertyOp22
 70
     1
102
RTVSPropertyOp23
 70
     1
102
RTVSPropertyOp24
 70
     1
102
RTVSPropertyOp25
 70
     1
102
RTVSPropertyOp26
 70
     1
102
RTVSPropertyOp27
 70
     1
102
RTVSPropertyOp28
 70
     1
102
RTVSPropertyOp29
 70
     1
102
RTVSPropertyOp30
 70
     1
102
RTVSPropertyOp31
 70
     1
102
RTVSPropertyOp32
 70
     1
102
RTVSPropertyOp33
 70
     1
102
RTVSPropertyOp34
 70
     1
102
RTVSPropertyOp35
 70
     1
102
RTVSPropertyOp36
 70
     1
102
RTVSPropertyOp37
 70
     1
102
RTVSPropertyOp38
 70
     1
102
RTVSPropertyOp39
 70
     1
102
RTVSPropertyOp40
 70
     1
102
RTVSPropertyOp41
 70
     1
102
RTVSPropertyOp42
 70
     1
102
RTVSPropertyOp43
 70
     1
102
RTVSPropertyOp44
 70
     1
102
RTVSPropertyOp45
 70
     1
102
RTVSPropertyOp46
 70
     1
102
RTVSPropertyOp47
 70
     1
102
RTVSPropertyOp48
 70
     1
102
RTVSPropertyOp49
 70
     1
102
RTVSPropertyOp50
 70
     1
102
RTVSPropertyOp51
 70
     0
102
RTVSPropertyOp52
 70
     0
102
RTVSPropertyOp53
 70
     1
102
RTVSPropertyOp54
 70
     1
102
RTVSPropertyOp55
 70
     1
102
RTVSPropertyOp56
 70
     1
102
RTVSPropertyOp57
 70
     1
102
RTVSPost2010Prop28
280
     0
102
RTVSPost2010PropOp28
 70
     1
102
RTVSPost2010Prop29
280
     1
102
RTVSPost2010PropOp29
 70
     1
102
RTVSPost2010Prop30
280
     1
102
RTVSPost2010PropOp30
 70
     1
102
RTVSPost2010Prop31
280
     0
102
RTVSPost2010PropOp31
 70
     1
102
RTVSPost2010Prop32
280
     0
102
RTVSPost2010PropOp32
 70
     1
102
RTVSPost2010Prop33
280
     0
102
RTVSPost2010PropOp33
 70
     1
102
RTVSPost2010Prop34
280
     0
102
RTVSPost2010PropOp34
 70
     1
102
RTVSPost2010Prop35
280
     0
102
RTVSPost2010PropOp35
 70
     1
102
RTVSPost2010Prop36
280
     0
102
RTVSPost2010PropOp36
 70
     1
102
RTVSPost2010Prop37
 90
       50
102
RTVSPost2010PropOp37
 70
     1
102
RTVSPost2010Prop38
140
0.0
102
RTVSPost2010PropOp38
 70
     1
102
RTVSPost2010Prop39
140
1.0
102
RTVSPost2010PropOp39
 70
     1
102
RTVSPost2010Prop40
 90
        0
102
RTVSPost2010PropOp40
 70
     1
102
RTVSPost2010Prop41ColorIndex
 90
       18
102
RTVSPost2010Prop41ColorRGB
 90
        0
102
RTVSPost2010PropOp41
 70
     1
102
RTVSPost2010Prop42
 90
       50
102
RTVSPost2010PropOp42
 70
     1
102
RTVSPost2010Prop43
 90
        3
102
RTVSPost2010PropOp43
 70
     1
102
RTVSPost2010Prop44ColorIndex
 90
        5
102
RTVSPost2010Prop44ColorRGB
 90
      255
102
RTVSPost2010PropOp44
 70
     1
102
RTVSPost2010Prop45
280
     0
102
RTVSPost2010PropOp45
 70
     1
102
RTVSPost2010Prop46
 90
       50
102
RTVSPost2010PropOp46
 70
     1
102
RTVSPost2010Prop47
 90
       50
102
RTVSPost2010PropOp47
 70
     1
102
RTVSPost2010Prop48
 90
       50
102
RTVSPost2010PropOp48
 70
     1
102
RTVSPost2010Prop49
280
     0
102
RTVSPost2010PropOp49
 70
     1
102
RTVSPost2010Prop50
 90
       50
102
RTVSPost2010PropOp50
 70
     1
102
RTVSPost2010Prop51ColorIndex
 90
      256
102
RTVSPost2010Prop51ColorRGB
 90
-16777216
102
RTVSPost2010PropOp51
 70
     0
102
RTVSPost2010Prop52
140
1.0
102
RTVSPost2010PropOp52
 70
     0
102
RTVSPost2010Prop53
 90
        2
102
RTVSPost2010PropOp53
 70
     1
102
RTVSPost2010Prop54
  1
strokes_ogs.tif
102
RTVSPost2010PropOp54
 70
     1
102
RTVSPost2010Prop55
280
     0
102
RTVSPost2010PropOp55
 70
     1
102
RTVSPost2010Prop56
140
1.0
102
RTVSPost2010PropOp56
 70
     1
102
RTVSPost2010Prop57
140
1.0
102
RTVSPost2010PropOp57
 70
     1
  0
XRECORD
  5
91
102
{ACAD_REACTORS
330
90
102
}
330
90
100
AcDbXrecord
280
     1
102
RTVSPropertyOp0
 70
     1
102
RTVSPropertyOp1
 70
     1
102
RTVSPropertyOp2
 70
     1
102
RTVSPropertyOp3
 70
     1
102
RTVSPropertyOp4
 70
     1
102
RTVSPropertyOp5
 70
     1
102
RTVSPropertyOp6
 70
     1
102
RTVSPropertyOp7
 70
     1
102
RTVSPropertyOp8
 70
     1
102
RTVSPropertyOp9
 70
     1
102
RTVSPropertyOp10
 70
     1
102
RTVSPropertyOp11
 70
     1
102
RTVSPropertyOp12
 70
     1
102
RTVSPropertyOp13
 70
     1
102
RTVSPropertyOp14
 70
     1
102
RTVSPropertyOp15
 70
     1
102
RTVSPropertyOp16
 70
     1
102
RTVSPropertyOp17
 70
     1
102
RTVSPropertyOp18
 70
     1
102
RTVSPropertyOp19
 70
     1
102
RTVSPropertyOp20
 70
     1
102
RTVSPropertyOp21
 70
     1
102
RTVSPropertyOp22
 70
     1
102
RTVSPropertyOp23
 70
     1
102
RTVSPropertyOp24
 70
     1
102
RTVSPropertyOp25
 70
     1
102
RTVSPropertyOp26
 70
     1
102
RTVSPropertyOp27
 70
     1
102
RTVSPropertyOp28
 70
     1
102
RTVSPropertyOp29
 70
     1
102
RTVSPropertyOp30
 70
     1
102
RTVSPropertyOp31
 70
     1
102
RTVSPropertyOp32
 70
     1
102
RTVSPropertyOp33
 70
     1
102
RTVSPropertyOp34
 70
     1
102
RTVSPropertyOp35
 70
     1
102
RTVSPropertyOp36
 70
     1
102
RTVSPropertyOp37
 70
     1
102
RTVSPropertyOp38
 70
     1
102
RTVSPropertyOp39
 70
     1
102
RTVSPropertyOp40
 70
     1
102
RTVSPropertyOp41
 70
     1
102
RTVSPropertyOp42
 70
     1
102
RTVSPropertyOp43
 70
     1
102
RTVSPropertyOp44
 70
     1
102
RTVSPropertyOp45
 70
     1
102
RTVSPropertyOp46
 70
     1
102
RTVSPropertyOp47
 70
     1
102
RTVSPropertyOp48
 70
     1
102
RTVSPropertyOp49
 70
     1
102
RTVSPropertyOp50
 70
     1
102
RTVSPropertyOp51
 70
     0
102
RTVSPropertyOp52
 70
     0
102
RTVSPropertyOp53
 70
     1
102
RTVSPropertyOp54
 70
     1
102
RTVSPropertyOp55
 70
     1
102
RTVSPropertyOp56
 70
     1
102
RTVSPropertyOp57
 70
     1
102
RTVSPost2010Prop28
280
     0
102
RTVSPost2010PropOp28
 70
     1
102
RTVSPost2010Prop29
280
     1
102
RTVSPost2010PropOp29
 70
     1
102
RTVSPost2010Prop30
280
     1
102
RTVSPost2010PropOp30
 70
     1
102
RTVSPost2010Prop31
280
     0
102
RTVSPost2010PropOp31
 70
     1
102
RTVSPost2010Prop32
280
     0
102
RTVSPost2010PropOp32
 70
     1
102
RTVSPost2010Prop33
280
     0
102
RTVSPost2010PropOp33
 70
     1
102
RTVSPost2010Prop34
280
     0
102
RTVSPost2010PropOp34
 70
     1
102
RTVSPost2010Prop35
280
     0
102
RTVSPost2010PropOp35
 70
     1
102
RTVSPost2010Prop36
280
     0
102
RTVSPost2010PropOp36
 70
     1
102
RTVSPost2010Prop37
 90
       50
102
RTVSPost2010PropOp37
 70
     1
102
RTVSPost2010Prop38
140
0.0
102
RTVSPost2010PropOp38
 70
     1
102
RTVSPost2010Prop39
140
1.0
102
RTVSPost2010PropOp39
 70
     1
102
RTVSPost2010Prop40
 90
        0
102
RTVSPost2010PropOp40
 70
     1
102
RTVSPost2010Prop41ColorIndex
 90
       18
102
RTVSPost2010Prop41ColorRGB
 90
        0
102
RTVSPost2010PropOp41
 70
     1
102
RTVSPost2010Prop42
 90
       50
102
RTVSPost2010PropOp42
 70
     1
102
RTVSPost2010Prop43
 90
        3
102
RTVSPost2010PropOp43
 70
     1
102
RTVSPost2010Prop44ColorIndex
 90
        5
102
RTVSPost2010Prop44ColorRGB
 90
      255
102
RTVSPost2010PropOp44
 70
     1
102
RTVSPost2010Prop45
280
     0
102
RTVSPost2010PropOp45
 70
     1
102
RTVSPost2010Prop46
 90
       50
102
RTVSPost2010PropOp46
 70
     1
102
RTVSPost2010Prop47
 90
       50
102
RTVSPost2010PropOp47
 70
     1
102
RTVSPost2010Prop48
 90
       50
102
RTVSPost2010PropOp48
 70
     1
102
RTVSPost2010Prop49
280
     0
102
RTVSPost2010PropOp49
 70
     1
102
RTVSPost2010Prop50
 90
       50
102
RTVSPost2010PropOp50
 70
     1
102
RTVSPost2010Prop51ColorIndex
 90
      256
102
RTVSPost2010Prop51ColorRGB
 90
-16777216
102
RTVSPost2010PropOp51
 70
     0
102
RTVSPost2010Prop52
140
1.0
102
RTVSPost2010PropOp52
 70
     0
102
RTVSPost2010Prop53
 90
        2
102
RTVSPost2010PropOp53
 70
     1
102
RTVSPost2010Prop54
  1
strokes_ogs.tif
102
RTVSPost2010PropOp54
 70
     1
102
RTVSPost2010Prop55
280
     0
102
RTVSPost2010PropOp55
 70
     1
102
RTVSPost2010Prop56
140
1.0
102
RTVSPost2010PropOp56
 70
     1
102
RTVSPost2010Prop57
140
1.0
102
RTVSPost2010PropOp57
 70
     1
  0
XRECORD
  5
93
102
{ACAD_REACTORS
330
92
102
}
330
92
100
AcDbXrecord
280
     1
102
RTVSPropertyOp0
 70
     1
102
RTVSPropertyOp1
 70
     1
102
RTVSPropertyOp2
 70
     1
102
RTVSPropertyOp3
 70
     1
102
RTVSPropertyOp4
 70
     1
102
RTVSPropertyOp5
 70
     1
102
RTVSPropertyOp6
 70
     1
102
RTVSPropertyOp7
 70
     1
102
RTVSPropertyOp8
 70
     1
102
RTVSPropertyOp9
 70
     1
102
RTVSPropertyOp10
 70
     1
102
RTVSPropertyOp11
 70
     1
102
RTVSPropertyOp12
 70
     1
102
RTVSPropertyOp13
 70
     1
102
RTVSPropertyOp14
 70
     1
102
RTVSPropertyOp15
 70
     1
102
RTVSPropertyOp16
 70
     1
102
RTVSPropertyOp17
 70
     1
102
RTVSPropertyOp18
 70
     1
102
RTVSPropertyOp19
 70
     1
102
RTVSPropertyOp20
 70
     1
102
RTVSPropertyOp21
 70
     1
102
RTVSPropertyOp22
 70
     1
102
RTVSPropertyOp23
 70
     1
102
RTVSPropertyOp24
 70
     1
102
RTVSPropertyOp25
 70
     1
102
RTVSPropertyOp26
 70
     1
102
RTVSPropertyOp27
 70
     1
102
RTVSPropertyOp28
 70
     1
102
RTVSPropertyOp29
 70
     1
102
RTVSPropertyOp30
 70
     1
102
RTVSPropertyOp31
 70
     1
102
RTVSPropertyOp32
 70
     1
102
RTVSPropertyOp33
 70
     1
102
RTVSPropertyOp34
 70
     1
102
RTVSPropertyOp35
 70
     1
102
RTVSPropertyOp36
 70
     1
102
RTVSPropertyOp37
 70
     1
102
RTVSPropertyOp38
 70
     1
102
RTVSPropertyOp39
 70
     1
102
RTVSPropertyOp40
 70
     1
102
RTVSPropertyOp41
 70
     1
102
RTVSPropertyOp42
 70
     1
102
RTVSPropertyOp43
 70
     1
102
RTVSPropertyOp44
 70
     1
102
RTVSPropertyOp45
 70
     1
102
RTVSPropertyOp46
 70
     1
102
RTVSPropertyOp47
 70
     1
102
RTVSPropertyOp48
 70
     1
102
RTVSPropertyOp49
 70
     1
102
RTVSPropertyOp50
 70
     1
102
RTVSPropertyOp51
 70
     0
102
RTVSPropertyOp52
 70
     0
102
RTVSPropertyOp53
 70
     1
102
RTVSPropertyOp54
 70
     1
102
RTVSPropertyOp55
 70
     1
102
RTVSPropertyOp56
 70
     1
102
RTVSPropertyOp57
 70
     1
102
RTVSPost2010Prop28
280
     0
102
RTVSPost2010PropOp28
 70
     1
102
RTVSPost2010Prop29
280
     1
102
RTVSPost2010PropOp29
 70
     1
102
RTVSPost2010Prop30
280
     1
102
RTVSPost2010PropOp30
 70
     1
102
RTVSPost2010Prop31
280
     0
102
RTVSPost2010PropOp31
 70
     1
102
RTVSPost2010Prop32
280
     0
102
RTVSPost2010PropOp32
 70
     1
102
RTVSPost2010Prop33
280
     0
102
RTVSPost2010PropOp33
 70
     1
102
RTVSPost2010Prop34
280
     0
102
RTVSPost2010PropOp34
 70
     1
102
RTVSPost2010Prop35
280
     0
102
RTVSPost2010PropOp35
 70
     1
102
RTVSPost2010Prop36
280
     0
102
RTVSPost2010PropOp36
 70
     1
102
RTVSPost2010Prop37
 90
       50
102
RTVSPost2010PropOp37
 70
     1
102
RTVSPost2010Prop38
140
0.0
102
RTVSPost2010PropOp38
 70
     1
102
RTVSPost2010Prop39
140
1.0
102
RTVSPost2010PropOp39
 70
     1
102
RTVSPost2010Prop40
 90
        0
102
RTVSPost2010PropOp40
 70
     1
102
RTVSPost2010Prop41ColorIndex
 90
       18
102
RTVSPost2010Prop41ColorRGB
 90
        0
102
RTVSPost2010PropOp41
 70
     1
102
RTVSPost2010Prop42
 90
       50
102
RTVSPost2010PropOp42
 70
     1
102
RTVSPost2010Prop43
 90
        3
102
RTVSPost2010PropOp43
 70
     1
102
RTVSPost2010Prop44ColorIndex
 90
        5
102
RTVSPost2010Prop44ColorRGB
 90
      255
102
RTVSPost2010PropOp44
 70
     1
102
RTVSPost2010Prop45
280
     0
102
RTVSPost2010PropOp45
 70
     1
102
RTVSPost2010Prop46
 90
       50
102
RTVSPost2010PropOp46
 70
     1
102
RTVSPost2010Prop47
 90
       50
102
RTVSPost2010PropOp47
 70
     1
102
RTVSPost2010Prop48
 90
       50
102
RTVSPost2010PropOp48
 70
     1
102
RTVSPost2010Prop49
280
     0
102
RTVSPost2010PropOp49
 70
     1
102
RTVSPost2010Prop50
 90
       50
102
RTVSPost2010PropOp50
 70
     1
102
RTVSPost2010Prop51ColorIndex
 90
      256
102
RTVSPost2010Prop51ColorRGB
 90
-16777216
102
RTVSPost2010PropOp51
 70
     0
102
RTVSPost2010Prop52
140
1.0
102
RTVSPost2010PropOp52
 70
     0
102
RTVSPost2010Prop53
 90
        2
102
RTVSPost2010PropOp53
 70
     1
102
RTVSPost2010Prop54
  1
strokes_ogs.tif
102
RTVSPost2010PropOp54
 70
     1
102
RTVSPost2010Prop55
280
     0
102
RTVSPost2010PropOp55
 70
     1
102
RTVSPost2010Prop56
140
1.0
102
RTVSPost2010PropOp56
 70
     1
102
RTVSPost2010Prop57
140
1.0
102
RTVSPost2010PropOp57
 70
     1
  0
XRECORD
  5
95
102
{ACAD_REACTORS
330
94
102
}
330
94
100
AcDbXrecord
280
     1
102
RTVSPropertyOp0
 70
     1
102
RTVSPropertyOp1
 70
     1
102
RTVSPropertyOp2
 70
     1
102
RTVSPropertyOp3
 70
     1
102
RTVSPropertyOp4
 70
     1
102
RTVSPropertyOp5
 70
     1
102
RTVSPropertyOp6
 70
     1
102
RTVSPropertyOp7
 70
     1
102
RTVSPropertyOp8
 70
     1
102
RTVSPropertyOp9
 70
     1
102
RTVSPropertyOp10
 70
     1
102
RTVSPropertyOp11
 70
     1
102
RTVSPropertyOp12
 70
     1
102
RTVSPropertyOp13
 70
     1
102
RTVSPropertyOp14
 70
     1
102
RTVSPropertyOp15
 70
     1
102
RTVSPropertyOp16
 70
     1
102
RTVSPropertyOp17
 70
     1
102
RTVSPropertyOp18
 70
     1
102
RTVSPropertyOp19
 70
     1
102
RTVSPropertyOp20
 70
     1
102
RTVSPropertyOp21
 70
     1
102
RTVSPropertyOp22
 70
     1
102
RTVSPropertyOp23
 70
     1
102
RTVSPropertyOp24
 70
     1
102
RTVSPropertyOp25
 70
     1
102
RTVSPropertyOp26
 70
     1
102
RTVSPropertyOp27
 70
     1
102
RTVSPropertyOp28
 70
     1
102
RTVSPropertyOp29
 70
     1
102
RTVSPropertyOp30
 70
     1
102
RTVSPropertyOp31
 70
     1
102
RTVSPropertyOp32
 70
     1
102
RTVSPropertyOp33
 70
     1
102
RTVSPropertyOp34
 70
     1
102
RTVSPropertyOp35
 70
     1
102
RTVSPropertyOp36
 70
     1
102
RTVSPropertyOp37
 70
     1
102
RTVSPropertyOp38
 70
     1
102
RTVSPropertyOp39
 70
     1
102
RTVSPropertyOp40
 70
     1
102
RTVSPropertyOp41
 70
     1
102
RTVSPropertyOp42
 70
     1
102
RTVSPropertyOp43
 70
     1
102
RTVSPropertyOp44
 70
     1
102
RTVSPropertyOp45
 70
     1
102
RTVSPropertyOp46
 70
     1
102
RTVSPropertyOp47
 70
     1
102
RTVSPropertyOp48
 70
     1
102
RTVSPropertyOp49
 70
     1
102
RTVSPropertyOp50
 70
     1
102
RTVSPropertyOp51
 70
     0
102
RTVSPropertyOp52
 70
     0
102
RTVSPropertyOp53
 70
     1
102
RTVSPropertyOp54
 70
     1
102
RTVSPropertyOp55
 70
     1
102
RTVSPropertyOp56
 70
     1
102
RTVSPropertyOp57
 70
     1
102
RTVSPost2010Prop28
280
     0
102
RTVSPost2010PropOp28
 70
     1
102
RTVSPost2010Prop29
280
     1
102
RTVSPost2010PropOp29
 70
     1
102
RTVSPost2010Prop30
280
     1
102
RTVSPost2010PropOp30
 70
     1
102
RTVSPost2010Prop31
280
     0
102
RTVSPost2010PropOp31
 70
     1
102
RTVSPost2010Prop32
280
     0
102
RTVSPost2010PropOp32
 70
     1
102
RTVSPost2010Prop33
280
     0
102
RTVSPost2010PropOp33
 70
     1
102
RTVSPost2010Prop34
280
     0
102
RTVSPost2010PropOp34
 70
     1
102
RTVSPost2010Prop35
280
     0
102
RTVSPost2010PropOp35
 70
     1
102
RTVSPost2010Prop36
280
     0
102
RTVSPost2010PropOp36
 70
     1
102
RTVSPost2010Prop37
 90
       50
102
RTVSPost2010PropOp37
 70
     1
102
RTVSPost2010Prop38
140
0.0
102
RTVSPost2010PropOp38
 70
     1
102
RTVSPost2010Prop39
140
1.0
102
RTVSPost2010PropOp39
 70
     1
102
RTVSPost2010Prop40
 90
        0
102
RTVSPost2010PropOp40
 70
     1
102
RTVSPost2010Prop41ColorIndex
 90
       18
102
RTVSPost2010Prop41ColorRGB
 90
        0
102
RTVSPost2010PropOp41
 70
     1
102
RTVSPost2010Prop42
 90
       50
102
RTVSPost2010PropOp42
 70
     1
102
RTVSPost2010Prop43
 90
        3
102
RTVSPost2010PropOp43
 70
     1
102
RTVSPost2010Prop44ColorIndex
 90
        5
102
RTVSPost2010Prop44ColorRGB
 90
      255
102
RTVSPost2010PropOp44
 70
     1
102
RTVSPost2010Prop45
280
     0
102
RTVSPost2010PropOp45
 70
     1
102
RTVSPost2010Prop46
 90
       50
102
RTVSPost2010PropOp46
 70
     1
102
RTVSPost2010Prop47
 90
       50
102
RTVSPost2010PropOp47
 70
     1
102
RTVSPost2010Prop48
 90
       50
102
RTVSPost2010PropOp48
 70
     1
102
RTVSPost2010Prop49
280
     0
102
RTVSPost2010PropOp49
 70
     1
102
RTVSPost2010Prop50
 90
       50
102
RTVSPost2010PropOp50
 70
     1
102
RTVSPost2010Prop51ColorIndex
 90
      256
102
RTVSPost2010Prop51ColorRGB
 90
-16777216
102
RTVSPost2010PropOp51
 70
     0
102
RTVSPost2010Prop52
140
1.0
102
RTVSPost2010PropOp52
 70
     0
102
RTVSPost2010Prop53
 90
        2
102
RTVSPost2010PropOp53
 70
     1
102
RTVSPost2010Prop54
  1
strokes_ogs.tif
102
RTVSPost2010PropOp54
 70
     1
102
RTVSPost2010Prop55
280
     0
102
RTVSPost2010PropOp55
 70
     1
102
RTVSPost2010Prop56
140
1.0
102
RTVSPost2010PropOp56
 70
     1
102
RTVSPost2010Prop57
140
1.0
102
RTVSPost2010PropOp57
 70
     1
  0
XRECORD
  5
97
102
{ACAD_REACTORS
330
96
102
}
330
96
100
AcDbXrecord
280
     1
102
RTVSPropertyOp0
 70
     1
102
RTVSPropertyOp1
 70
     1
102
RTVSPropertyOp2
 70
     1
102
RTVSPropertyOp3
 70
     1
102
RTVSPropertyOp4
 70
     1
102
RTVSPropertyOp5
 70
     1
102
RTVSPropertyOp6
 70
     1
102
RTVSPropertyOp7
 70
     1
102
RTVSPropertyOp8
 70
     1
102
RTVSPropertyOp9
 70
     1
102
RTVSPropertyOp10
 70
     1
102
RTVSPropertyOp11
 70
     1
102
RTVSPropertyOp12
 70
     1
102
RTVSPropertyOp13
 70
     1
102
RTVSPropertyOp14
 70
     1
102
RTVSPropertyOp15
 70
     1
102
RTVSPropertyOp16
 70
     1
102
RTVSPropertyOp17
 70
     1
102
RTVSPropertyOp18
 70
     1
102
RTVSPropertyOp19
 70
     1
102
RTVSPropertyOp20
 70
     1
102
RTVSPropertyOp21
 70
     1
102
RTVSPropertyOp22
 70
     1
102
RTVSPropertyOp23
 70
     1
102
RTVSPropertyOp24
 70
     1
102
RTVSPropertyOp25
 70
     1
102
RTVSPropertyOp26
 70
     1
102
RTVSPropertyOp27
 70
     1
102
RTVSPropertyOp28
 70
     1
102
RTVSPropertyOp29
 70
     1
102
RTVSPropertyOp30
 70
     1
102
RTVSPropertyOp31
 70
     1
102
RTVSPropertyOp32
 70
     1
102
RTVSPropertyOp33
 70
     1
102
RTVSPropertyOp34
 70
     1
102
RTVSPropertyOp35
 70
     1
102
RTVSPropertyOp36
 70
     1
102
RTVSPropertyOp37
 70
     1
102
RTVSPropertyOp38
 70
     1
102
RTVSPropertyOp39
 70
     1
102
RTVSPropertyOp40
 70
     1
102
RTVSPropertyOp41
 70
     1
102
RTVSPropertyOp42
 70
     1
102
RTVSPropertyOp43
 70
     1
102
RTVSPropertyOp44
 70
     1
102
RTVSPropertyOp45
 70
     1
102
RTVSPropertyOp46
 70
     1
102
RTVSPropertyOp47
 70
     1
102
RTVSPropertyOp48
 70
     1
102
RTVSPropertyOp49
 70
     1
102
RTVSPropertyOp50
 70
     1
102
RTVSPropertyOp51
 70
     0
102
RTVSPropertyOp52
 70
     0
102
RTVSPropertyOp53
 70
     1
102
RTVSPropertyOp54
 70
     1
102
RTVSPropertyOp55
 70
     1
102
RTVSPropertyOp56
 70
     1
102
RTVSPropertyOp57
 70
     1
102
RTVSPost2010Prop28
280
     0
102
RTVSPost2010PropOp28
 70
     1
102
RTVSPost2010Prop29
280
     1
102
RTVSPost2010PropOp29
 70
     1
102
RTVSPost2010Prop30
280
     1
102
RTVSPost2010PropOp30
 70
     1
102
RTVSPost2010Prop31
280
     0
102
RTVSPost2010PropOp31
 70
     1
102
RTVSPost2010Prop32
280
     0
102
RTVSPost2010PropOp32
 70
     1
102
RTVSPost2010Prop33
280
     0
102
RTVSPost2010PropOp33
 70
     1
102
RTVSPost2010Prop34
280
     0
102
RTVSPost2010PropOp34
 70
     1
102
RTVSPost2010Prop35
280
     0
102
RTVSPost2010PropOp35
 70
     1
102
RTVSPost2010Prop36
280
     0
102
RTVSPost2010PropOp36
 70
     1
102
RTVSPost2010Prop37
 90
       50
102
RTVSPost2010PropOp37
 70
     1
102
RTVSPost2010Prop38
140
0.0
102
RTVSPost2010PropOp38
 70
     1
102
RTVSPost2010Prop39
140
1.0
102
RTVSPost2010PropOp39
 70
     1
102
RTVSPost2010Prop40
 90
        0
102
RTVSPost2010PropOp40
 70
     1
102
RTVSPost2010Prop41ColorIndex
 90
       18
102
RTVSPost2010Prop41ColorRGB
 90
        0
102
RTVSPost2010PropOp41
 70
     1
102
RTVSPost2010Prop42
 90
       50
102
RTVSPost2010PropOp42
 70
     1
102
RTVSPost2010Prop43
 90
        3
102
RTVSPost2010PropOp43
 70
     1
102
RTVSPost2010Prop44ColorIndex
 90
        5
102
RTVSPost2010Prop44ColorRGB
 90
      255
102
RTVSPost2010PropOp44
 70
     1
102
RTVSPost2010Prop45
280
     0
102
RTVSPost2010PropOp45
 70
     1
102
RTVSPost2010Prop46
 90
       50
102
RTVSPost2010PropOp46
 70
     1
102
RTVSPost2010Prop47
 90
       50
102
RTVSPost2010PropOp47
 70
     1
102
RTVSPost2010Prop48
 90
       50
102
RTVSPost2010PropOp48
 70
     1
102
RTVSPost2010Prop49
280
     0
102
RTVSPost2010PropOp49
 70
     1
102
RTVSPost2010Prop50
 90
       50
102
RTVSPost2010PropOp50
 70
     1
102
RTVSPost2010Prop51ColorIndex
 90
      256
102
RTVSPost2010Prop51ColorRGB
 90
-16777216
102
RTVSPost2010PropOp51
 70
     0
102
RTVSPost2010Prop52
140
1.0
102
RTVSPost2010PropOp52
 70
     0
102
RTVSPost2010Prop53
 90
        2
102
RTVSPost2010PropOp53
 70
     1
102
RTVSPost2010Prop54
  1
strokes_ogs.tif
102
RTVSPost2010PropOp54
 70
     1
102
RTVSPost2010Prop55
280
     0
102
RTVSPost2010PropOp55
 70
     1
102
RTVSPost2010Prop56
140
1.0
102
RTVSPost2010PropOp56
 70
     1
102
RTVSPost2010Prop57
140
1.0
102
RTVSPost2010PropOp57
 70
     1
  0
XRECORD
  5
9D
102
{ACAD_REACTORS
330
9C
102
}
330
9C
100
AcDbXrecord
280
     1
102
RTVSPropertyOp0
 70
     1
102
RTVSPropertyOp1
 70
     1
102
RTVSPropertyOp2
 70
     1
102
RTVSPropertyOp3
 70
     1
102
RTVSPropertyOp4
 70
     1
102
RTVSPropertyOp5
 70
     1
102
RTVSPropertyOp6
 70
     1
102
RTVSPropertyOp7
 70
     1
102
RTVSPropertyOp8
 70
     1
102
RTVSPropertyOp9
 70
     1
102
RTVSPropertyOp10
 70
     1
102
RTVSPropertyOp11
 70
     1
102
RTVSPropertyOp12
 70
     1
102
RTVSPropertyOp13
 70
     1
102
RTVSPropertyOp14
 70
     1
102
RTVSPropertyOp15
 70
     1
102
RTVSPropertyOp16
 70
     1
102
RTVSPropertyOp17
 70
     1
102
RTVSPropertyOp18
 70
     1
102
RTVSPropertyOp19
 70
     1
102
RTVSPropertyOp20
 70
     1
102
RTVSPropertyOp21
 70
     1
102
RTVSPropertyOp22
 70
     1
102
RTVSPropertyOp23
 70
     1
102
RTVSPropertyOp24
 70
     1
102
RTVSPropertyOp25
 70
     1
102
RTVSPropertyOp26
 70
     1
102
RTVSPropertyOp27
 70
     1
102
RTVSPropertyOp28
 70
     1
102
RTVSPropertyOp29
 70
     1
102
RTVSPropertyOp30
 70
     1
102
RTVSPropertyOp31
 70
     1
102
RTVSPropertyOp32
 70
     1
102
RTVSPropertyOp33
 70
     1
102
RTVSPropertyOp34
 70
     1
102
RTVSPropertyOp35
 70
     1
102
RTVSPropertyOp36
 70
     1
102
RTVSPropertyOp37
 70
     1
102
RTVSPropertyOp38
 70
     1
102
RTVSPropertyOp39
 70
     1
102
RTVSPropertyOp40
 70
     1
102
RTVSPropertyOp41
 70
     1
102
RTVSPropertyOp42
 70
     1
102
RTVSPropertyOp43
 70
     1
102
RTVSPropertyOp44
 70
     1
102
RTVSPropertyOp45
 70
     1
102
RTVSPropertyOp46
 70
     1
102
RTVSPropertyOp47
 70
     1
102
RTVSPropertyOp48
 70
     1
102
RTVSPropertyOp49
 70
     1
102
RTVSPropertyOp50
 70
     1
102
RTVSPropertyOp51
 70
     0
102
RTVSPropertyOp52
 70
     0
102
RTVSPropertyOp53
 70
     1
102
RTVSPropertyOp54
 70
     1
102
RTVSPropertyOp55
 70
     1
102
RTVSPropertyOp56
 70
     1
102
RTVSPropertyOp57
 70
     1
102
RTVSPost2010Prop28
280
     0
102
RTVSPost2010PropOp28
 70
     1
102
RTVSPost2010Prop29
280
     1
102
RTVSPost2010PropOp29
 70
     1
102
RTVSPost2010Prop30
280
     1
102
RTVSPost2010PropOp30
 70
     1
102
RTVSPost2010Prop31
280
     0
102
RTVSPost2010PropOp31
 70
     1
102
RTVSPost2010Prop32
280
     0
102
RTVSPost2010PropOp32
 70
     1
102
RTVSPost2010Prop33
280
     0
102
RTVSPost2010PropOp33
 70
     1
102
RTVSPost2010Prop34
280
     0
102
RTVSPost2010PropOp34
 70
     1
102
RTVSPost2010Prop35
280
     0
102
RTVSPost2010PropOp35
 70
     1
102
RTVSPost2010Prop36
280
     0
102
RTVSPost2010PropOp36
 70
     1
102
RTVSPost2010Prop37
 90
       50
102
RTVSPost2010PropOp37
 70
     1
102
RTVSPost2010Prop38
140
0.0
102
RTVSPost2010PropOp38
 70
     1
102
RTVSPost2010Prop39
140
1.0
102
RTVSPost2010PropOp39
 70
     1
102
RTVSPost2010Prop40
 90
        0
102
RTVSPost2010PropOp40
 70
     1
102
RTVSPost2010Prop41ColorIndex
 90
       18
102
RTVSPost2010Prop41ColorRGB
 90
        0
102
RTVSPost2010PropOp41
 70
     1
102
RTVSPost2010Prop42
 90
       50
102
RTVSPost2010PropOp42
 70
     1
102
RTVSPost2010Prop43
 90
        3
102
RTVSPost2010PropOp43
 70
     1
102
RTVSPost2010Prop44ColorIndex
 90
        5
102
RTVSPost2010Prop44ColorRGB
 90
      255
102
RTVSPost2010PropOp44
 70
     1
102
RTVSPost2010Prop45
280
     0
102
RTVSPost2010PropOp45
 70
     1
102
RTVSPost2010Prop46
 90
       50
102
RTVSPost2010PropOp46
 70
     1
102
RTVSPost2010Prop47
 90
       50
102
RTVSPost2010PropOp47
 70
     1
102
RTVSPost2010Prop48
 90
       50
102
RTVSPost2010PropOp48
 70
     1
102
RTVSPost2010Prop49
280
     0
102
RTVSPost2010PropOp49
 70
     1
102
RTVSPost2010Prop50
 90
       50
102
RTVSPost2010PropOp50
 70
     1
102
RTVSPost2010Prop51ColorIndex
 90
      256
102
RTVSPost2010Prop51ColorRGB
 90
-16777216
102
RTVSPost2010PropOp51
 70
     0
102
RTVSPost2010Prop52
140
1.0
102
RTVSPost2010PropOp52
 70
     0
102
RTVSPost2010Prop53
 90
        2
102
RTVSPost2010PropOp53
 70
     1
102
RTVSPost2010Prop54
  1
strokes_ogs.tif
102
RTVSPost2010PropOp54
 70
     1
102
RTVSPost2010Prop55
280
     0
102
RTVSPost2010PropOp55
 70
     1
102
RTVSPost2010Prop56
140
1.0
102
RTVSPost2010PropOp56
 70
     1
102
RTVSPost2010Prop57
140
1.0
102
RTVSPost2010PropOp57
 70
     1
  0
XRECORD
  5
B1
102
{ACAD_REACTORS
330
B0
102
}
330
B0
100
AcDbXrecord
280
     1
102
RTVSPropertyOp0
 70
     0
102
RTVSPropertyOp1
 70
     0
102
RTVSPropertyOp2
 70
     0
102
RTVSPropertyOp3
 70
     0
102
RTVSPropertyOp4
 70
     0
102
RTVSPropertyOp5
 70
     0
102
RTVSPropertyOp6
 70
     0
102
RTVSPropertyOp7
 70
     0
102
RTVSPropertyOp8
 70
     0
102
RTVSPropertyOp9
 70
     0
102
RTVSPropertyOp10
 70
     0
102
RTVSPropertyOp11
 70
     0
102
RTVSPropertyOp12
 70
     0
102
RTVSPropertyOp13
 70
     0
102
RTVSPropertyOp14
 70
     2
102
RTVSPropertyOp15
 70
     0
102
RTVSPropertyOp16
 70
     0
102
RTVSPropertyOp17
 70
     0
102
RTVSPropertyOp18
 70
     0
102
RTVSPropertyOp19
 70
     0
102
RTVSPropertyOp20
 70
     0
102
RTVSPropertyOp21
 70
     0
102
RTVSPropertyOp22
 70
     0
102
RTVSPropertyOp23
 70
     0
102
RTVSPropertyOp24
 70
     0
102
RTVSPropertyOp25
 70
     0
102
RTVSPropertyOp26
 70
     0
102
RTVSPropertyOp27
 70
     0
102
RTVSPropertyOp28
 70
     0
102
RTVSPropertyOp29
 70
     0
102
RTVSPropertyOp30
 70
     0
102
RTVSPropertyOp31
 70
     0
102
RTVSPropertyOp32
 70
     0
102
RTVSPropertyOp33
 70
     0
102
RTVSPropertyOp34
 70
     0
102
RTVSPropertyOp35
 70
     0
102
RTVSPropertyOp36
 70
     0
102
RTVSPropertyOp37
 70
     0
102
RTVSPropertyOp38
 70
     0
102
RTVSPropertyOp39
 70
     0
102
RTVSPropertyOp40
 70
     0
102
RTVSPropertyOp41
 70
     0
102
RTVSPropertyOp42
 70
     0
102
RTVSPropertyOp43
 70
     0
102
RTVSPropertyOp44
 70
     0
102
RTVSPropertyOp45
 70
     0
102
RTVSPropertyOp46
 70
     0
102
RTVSPropertyOp47
 70
     0
102
RTVSPropertyOp48
 70
     0
102
RTVSPropertyOp49
 70
     0
102
RTVSPropertyOp50
 70
     0
102
RTVSPropertyOp51
 70
     0
102
RTVSPropertyOp52
 70
     0
102
RTVSPropertyOp53
 70
     0
102
RTVSPropertyOp54
 70
     0
102
RTVSPropertyOp55
 70
     0
102
RTVSPropertyOp56
 70
     0
102
RTVSPropertyOp57
 70
     0
102
RTVSPost2010Prop28
280
     0
102
RTVSPost2010PropOp28
 70
     0
102
RTVSPost2010Prop29
280
     1
102
RTVSPost2010PropOp29
 70
     0
102
RTVSPost2010Prop30
280
     1
102
RTVSPost2010PropOp30
 70
     0
102
RTVSPost2010Prop31
280
     0
102
RTVSPost2010PropOp31
 70
     0
102
RTVSPost2010Prop32
280
     0
102
RTVSPost2010PropOp32
 70
     0
102
RTVSPost2010Prop33
280
     0
102
RTVSPost2010PropOp33
 70
     0
102
RTVSPost2010Prop34
280
     0
102
RTVSPost2010PropOp34
 70
     0
102
RTVSPost2010Prop35
280
     0
102
RTVSPost2010PropOp35
 70
     0
102
RTVSPost2010Prop36
280
     0
102
RTVSPost2010PropOp36
 70
     0
102
RTVSPost2010Prop37
 90
       50
102
RTVSPost2010PropOp37
 70
     0
102
RTVSPost2010Prop38
140
0.0
102
RTVSPost2010PropOp38
 70
     0
102
RTVSPost2010Prop39
140
1.0
102
RTVSPost2010PropOp39
 70
     0
102
RTVSPost2010Prop40
 90
        0
102
RTVSPost2010PropOp40
 70
     0
102
RTVSPost2010Prop41ColorIndex
 90
       18
102
RTVSPost2010Prop41ColorRGB
 90
        0
102
RTVSPost2010PropOp41
 70
     0
102
RTVSPost2010Prop42
 90
       50
102
RTVSPost2010PropOp42
 70
     0
102
RTVSPost2010Prop43
 90
        3
102
RTVSPost2010PropOp43
 70
     0
102
RTVSPost2010Prop44ColorIndex
 90
        5
102
RTVSPost2010Prop44ColorRGB
 90
      255
102
RTVSPost2010PropOp44
 70
     0
102
RTVSPost2010Prop45
280
     0
102
RTVSPost2010PropOp45
 70
     0
102
RTVSPost2010Prop46
 90
       50
102
RTVSPost2010PropOp46
 70
     0
102
RTVSPost2010Prop47
 90
       50
102
RTVSPost2010PropOp47
 70
     0
102
RTVSPost2010Prop48
 90
       50
102
RTVSPost2010PropOp48
 70
     0
102
RTVSPost2010Prop49
280
     0
102
RTVSPost2010PropOp49
 70
     0
102
RTVSPost2010Prop50
 90
       50
102
RTVSPost2010PropOp50
 70
     0
102
RTVSPost2010Prop51ColorIndex
 90
      256
102
RTVSPost2010Prop51ColorRGB
 90
-16777216
102
RTVSPost2010PropOp51
 70
     0
102
RTVSPost2010Prop52
140
1.0
102
RTVSPost2010PropOp52
 70
     0
102
RTVSPost2010Prop53
 90
        2
102
RTVSPost2010PropOp53
 70
     0
102
RTVSPost2010Prop54
  1
strokes_ogs.tif
102
RTVSPost2010PropOp54
 70
     0
102
RTVSPost2010Prop55
280
     0
102
RTVSPost2010PropOp55
 70
     0
102
RTVSPost2010Prop56
140
1.0
102
RTVSPost2010PropOp56
 70
     0
102
RTVSPost2010Prop57
140
1.0
102
RTVSPost2010PropOp57
 70
     0
  0
XRECORD
  5
AB
102
{ACAD_REACTORS
330
AA
102
}
330
AA
100
AcDbXrecord
280
     1
102
RTVSPropertyOp0
 70
     1
102
RTVSPropertyOp1
 70
     1
102
RTVSPropertyOp2
 70
     1
102
RTVSPropertyOp3
 70
     1
102
RTVSPropertyOp4
 70
     1
102
RTVSPropertyOp5
 70
     1
102
RTVSPropertyOp6
 70
     1
102
RTVSPropertyOp7
 70
     1
102
RTVSPropertyOp8
 70
     1
102
RTVSPropertyOp9
 70
     1
102
RTVSPropertyOp10
 70
     1
102
RTVSPropertyOp11
 70
     1
102
RTVSPropertyOp12
 70
     1
102
RTVSPropertyOp13
 70
     1
102
RTVSPropertyOp14
 70
     1
102
RTVSPropertyOp15
 70
     1
102
RTVSPropertyOp16
 70
     1
102
RTVSPropertyOp17
 70
     1
102
RTVSPropertyOp18
 70
     1
102
RTVSPropertyOp19
 70
     1
102
RTVSPropertyOp20
 70
     1
102
RTVSPropertyOp21
 70
     1
102
RTVSPropertyOp22
 70
     1
102
RTVSPropertyOp23
 70
     1
102
RTVSPropertyOp24
 70
     1
102
RTVSPropertyOp25
 70
     1
102
RTVSPropertyOp26
 70
     1
102
RTVSPropertyOp27
 70
     1
102
RTVSPropertyOp28
 70
     1
102
RTVSPropertyOp29
 70
     1
102
RTVSPropertyOp30
 70
     1
102
RTVSPropertyOp31
 70
     1
102
RTVSPropertyOp32
 70
     1
102
RTVSPropertyOp33
 70
     1
102
RTVSPropertyOp34
 70
     1
102
RTVSPropertyOp35
 70
     1
102
RTVSPropertyOp36
 70
     1
102
RTVSPropertyOp37
 70
     1
102
RTVSPropertyOp38
 70
     1
102
RTVSPropertyOp39
 70
     1
102
RTVSPropertyOp40
 70
     1
102
RTVSPropertyOp41
 70
     1
102
RTVSPropertyOp42
 70
     1
102
RTVSPropertyOp43
 70
     1
102
RTVSPropertyOp44
 70
     1
102
RTVSPropertyOp45
 70
     1
102
RTVSPropertyOp46
 70
     1
102
RTVSPropertyOp47
 70
     1
102
RTVSPropertyOp48
 70
     1
102
RTVSPropertyOp49
 70
     1
102
RTVSPropertyOp50
 70
     1
102
RTVSPropertyOp51
 70
     0
102
RTVSPropertyOp52
 70
     0
102
RTVSPropertyOp53
 70
     1
102
RTVSPropertyOp54
 70
     1
102
RTVSPropertyOp55
 70
     1
102
RTVSPropertyOp56
 70
     1
102
RTVSPropertyOp57
 70
     1
102
RTVSPost2010Prop28
280
     0
102
RTVSPost2010PropOp28
 70
     1
102
RTVSPost2010Prop29
280
     1
102
RTVSPost2010PropOp29
 70
     1
102
RTVSPost2010Prop30
280
     1
102
RTVSPost2010PropOp30
 70
     1
102
RTVSPost2010Prop31
280
     0
102
RTVSPost2010PropOp31
 70
     1
102
RTVSPost2010Prop32
280
     0
102
RTVSPost2010PropOp32
 70
     1
102
RTVSPost2010Prop33
280
     0
102
RTVSPost2010PropOp33
 70
     1
102
RTVSPost2010Prop34
280
     0
102
RTVSPost2010PropOp34
 70
     1
102
RTVSPost2010Prop35
280
     0
102
RTVSPost2010PropOp35
 70
     1
102
RTVSPost2010Prop36
280
     0
102
RTVSPost2010PropOp36
 70
     1
102
RTVSPost2010Prop37
 90
       50
102
RTVSPost2010PropOp37
 70
     1
102
RTVSPost2010Prop38
140
0.0
102
RTVSPost2010PropOp38
 70
     1
102
RTVSPost2010Prop39
140
1.0
102
RTVSPost2010PropOp39
 70
     1
102
RTVSPost2010Prop40
 90
        0
102
RTVSPost2010PropOp40
 70
     1
102
RTVSPost2010Prop41ColorIndex
 90
       18
102
RTVSPost2010Prop41ColorRGB
 90
        0
102
RTVSPost2010PropOp41
 70
     1
102
RTVSPost2010Prop42
 90
       50
102
RTVSPost2010PropOp42
 70
     1
102
RTVSPost2010Prop43
 90
        3
102
RTVSPost2010PropOp43
 70
     1
102
RTVSPost2010Prop44ColorIndex
 90
        5
102
RTVSPost2010Prop44ColorRGB
 90
      255
102
RTVSPost2010PropOp44
 70
     1
102
RTVSPost2010Prop45
280
     0
102
RTVSPost2010PropOp45
 70
     1
102
RTVSPost2010Prop46
 90
       50
102
RTVSPost2010PropOp46
 70
     1
102
RTVSPost2010Prop47
 90
       50
102
RTVSPost2010PropOp47
 70
     1
102
RTVSPost2010Prop48
 90
       50
102
RTVSPost2010PropOp48
 70
     1
102
RTVSPost2010Prop49
280
     0
102
RTVSPost2010PropOp49
 70
     1
102
RTVSPost2010Prop50
 90
       50
102
RTVSPost2010PropOp50
 70
     1
102
RTVSPost2010Prop51ColorIndex
 90
      256
102
RTVSPost2010Prop51ColorRGB
 90
-16777216
102
RTVSPost2010PropOp51
 70
     0
102
RTVSPost2010Prop52
140
1.0
102
RTVSPost2010PropOp52
 70
     0
102
RTVSPost2010Prop53
 90
        2
102
RTVSPost2010PropOp53
 70
     1
102
RTVSPost2010Prop54
  1
strokes_ogs.tif
102
RTVSPost2010PropOp54
 70
     1
102
RTVSPost2010Prop55
280
     0
102
RTVSPost2010PropOp55
 70
     1
102
RTVSPost2010Prop56
140
1.0
102
RTVSPost2010PropOp56
 70
     1
102
RTVSPost2010Prop57
140
1.0
102
RTVSPost2010PropOp57
 70
     1
  0
XRECORD
  5
B3
102
{ACAD_REACTORS
330
B2
102
}
330
B2
100
AcDbXrecord
280
     1
102
RTVSPropertyOp0
 70
     0
102
RTVSPropertyOp1
 70
     0
102
RTVSPropertyOp2
 70
     0
102
RTVSPropertyOp3
 70
     0
102
RTVSPropertyOp4
 70
     0
102
RTVSPropertyOp5
 70
     0
102
RTVSPropertyOp6
 70
     0
102
RTVSPropertyOp7
 70
     0
102
RTVSPropertyOp8
 70
     0
102
RTVSPropertyOp9
 70
     0
102
RTVSPropertyOp10
 70
     0
102
RTVSPropertyOp11
 70
     0
102
RTVSPropertyOp12
 70
     0
102
RTVSPropertyOp13
 70
     0
102
RTVSPropertyOp14
 70
     2
102
RTVSPropertyOp15
 70
     0
102
RTVSPropertyOp16
 70
     0
102
RTVSPropertyOp17
 70
     0
102
RTVSPropertyOp18
 70
     0
102
RTVSPropertyOp19
 70
     0
102
RTVSPropertyOp20
 70
     0
102
RTVSPropertyOp21
 70
     0
102
RTVSPropertyOp22
 70
     0
102
RTVSPropertyOp23
 70
     0
102
RTVSPropertyOp24
 70
     0
102
RTVSPropertyOp25
 70
     0
102
RTVSPropertyOp26
 70
     0
102
RTVSPropertyOp27
 70
     0
102
RTVSPropertyOp28
 70
     0
102
RTVSPropertyOp29
 70
     0
102
RTVSPropertyOp30
 70
     0
102
RTVSPropertyOp31
 70
     0
102
RTVSPropertyOp32
 70
     0
102
RTVSPropertyOp33
 70
     0
102
RTVSPropertyOp34
 70
     0
102
RTVSPropertyOp35
 70
     0
102
RTVSPropertyOp36
 70
     0
102
RTVSPropertyOp37
 70
     0
102
RTVSPropertyOp38
 70
     0
102
RTVSPropertyOp39
 70
     0
102
RTVSPropertyOp40
 70
     0
102
RTVSPropertyOp41
 70
     0
102
RTVSPropertyOp42
 70
     0
102
RTVSPropertyOp43
 70
     0
102
RTVSPropertyOp44
 70
     0
102
RTVSPropertyOp45
 70
     0
102
RTVSPropertyOp46
 70
     0
102
RTVSPropertyOp47
 70
     0
102
RTVSPropertyOp48
 70
     0
102
RTVSPropertyOp49
 70
     0
102
RTVSPropertyOp50
 70
     0
102
RTVSPropertyOp51
 70
     0
102
RTVSPropertyOp52
 70
     0
102
RTVSPropertyOp53
 70
     0
102
RTVSPropertyOp54
 70
     0
102
RTVSPropertyOp55
 70
     0
102
RTVSPropertyOp56
 70
     0
102
RTVSPropertyOp57
 70
     0
102
RTVSPost2010Prop28
280
     0
102
RTVSPost2010PropOp28
 70
     0
102
RTVSPost2010Prop29
280
     1
102
RTVSPost2010PropOp29
 70
     0
102
RTVSPost2010Prop30
280
     1
102
RTVSPost2010PropOp30
 70
     0
102
RTVSPost2010Prop31
280
     0
102
RTVSPost2010PropOp31
 70
     0
102
RTVSPost2010Prop32
280
     0
102
RTVSPost2010PropOp32
 70
     0
102
RTVSPost2010Prop33
280
     0
102
RTVSPost2010PropOp33
 70
     0
102
RTVSPost2010Prop34
280
     0
102
RTVSPost2010PropOp34
 70
     0
102
RTVSPost2010Prop35
280
     0
102
RTVSPost2010PropOp35
 70
     0
102
RTVSPost2010Prop36
280
     0
102
RTVSPost2010PropOp36
 70
     0
102
RTVSPost2010Prop37
 90
       50
102
RTVSPost2010PropOp37
 70
     0
102
RTVSPost2010Prop38
140
0.0
102
RTVSPost2010PropOp38
 70
     0
102
RTVSPost2010Prop39
140
1.0
102
RTVSPost2010PropOp39
 70
     0
102
RTVSPost2010Prop40
 90
        0
102
RTVSPost2010PropOp40
 70
     0
102
RTVSPost2010Prop41ColorIndex
 90
       18
102
RTVSPost2010Prop41ColorRGB
 90
        0
102
RTVSPost2010PropOp41
 70
     0
102
RTVSPost2010Prop42
 90
       50
102
RTVSPost2010PropOp42
 70
     0
102
RTVSPost2010Prop43
 90
        3
102
RTVSPost2010PropOp43
 70
     0
102
RTVSPost2010Prop44ColorIndex
 90
        5
102
RTVSPost2010Prop44ColorRGB
 90
      255
102
RTVSPost2010PropOp44
 70
     0
102
RTVSPost2010Prop45
280
     0
102
RTVSPost2010PropOp45
 70
     0
102
RTVSPost2010Prop46
 90
       50
102
RTVSPost2010PropOp46
 70
     0
102
RTVSPost2010Prop47
 90
       50
102
RTVSPost2010PropOp47
 70
     0
102
RTVSPost2010Prop48
 90
       50
102
RTVSPost2010PropOp48
 70
     0
102
RTVSPost2010Prop49
280
     0
102
RTVSPost2010PropOp49
 70
     0
102
RTVSPost2010Prop50
 90
       50
102
RTVSPost2010PropOp50
 70
     0
102
RTVSPost2010Prop51ColorIndex
 90
      256
102
RTVSPost2010Prop51ColorRGB
 90
-16777216
102
RTVSPost2010PropOp51
 70
     0
102
RTVSPost2010Prop52
140
1.0
102
RTVSPost2010PropOp52
 70
     0
102
RTVSPost2010Prop53
 90
        2
102
RTVSPost2010PropOp53
 70
     0
102
RTVSPost2010Prop54
  1
strokes_ogs.tif
102
RTVSPost2010PropOp54
 70
     0
102
RTVSPost2010Prop55
280
     0
102
RTVSPost2010PropOp55
 70
     0
102
RTVSPost2010Prop56
140
1.0
102
RTVSPost2010PropOp56
 70
     0
102
RTVSPost2010Prop57
140
1.0
102
RTVSPost2010PropOp57
 70
     0
  0
XRECORD
  5
A1
102
{ACAD_REACTORS
330
A0
102
}
330
A0
100
AcDbXrecord
280
     1
102
RTVSPropertyOp0
 70
     1
102
RTVSPropertyOp1
 70
     1
102
RTVSPropertyOp2
 70
     1
102
RTVSPropertyOp3
 70
     1
102
RTVSPropertyOp4
 70
     1
102
RTVSPropertyOp5
 70
     1
102
RTVSPropertyOp6
 70
     1
102
RTVSPropertyOp7
 70
     1
102
RTVSPropertyOp8
 70
     1
102
RTVSPropertyOp9
 70
     1
102
RTVSPropertyOp10
 70
     1
102
RTVSPropertyOp11
 70
     1
102
RTVSPropertyOp12
 70
     1
102
RTVSPropertyOp13
 70
     1
102
RTVSPropertyOp14
 70
     1
102
RTVSPropertyOp15
 70
     1
102
RTVSPropertyOp16
 70
     1
102
RTVSPropertyOp17
 70
     1
102
RTVSPropertyOp18
 70
     1
102
RTVSPropertyOp19
 70
     1
102
RTVSPropertyOp20
 70
     1
102
RTVSPropertyOp21
 70
     1
102
RTVSPropertyOp22
 70
     1
102
RTVSPropertyOp23
 70
     1
102
RTVSPropertyOp24
 70
     1
102
RTVSPropertyOp25
 70
     1
102
RTVSPropertyOp26
 70
     1
102
RTVSPropertyOp27
 70
     1
102
RTVSPropertyOp28
 70
     1
102
RTVSPropertyOp29
 70
     1
102
RTVSPropertyOp30
 70
     1
102
RTVSPropertyOp31
 70
     1
102
RTVSPropertyOp32
 70
     1
102
RTVSPropertyOp33
 70
     1
102
RTVSPropertyOp34
 70
     1
102
RTVSPropertyOp35
 70
     1
102
RTVSPropertyOp36
 70
     1
102
RTVSPropertyOp37
 70
     1
102
RTVSPropertyOp38
 70
     1
102
RTVSPropertyOp39
 70
     1
102
RTVSPropertyOp40
 70
     1
102
RTVSPropertyOp41
 70
     1
102
RTVSPropertyOp42
 70
     1
102
RTVSPropertyOp43
 70
     1
102
RTVSPropertyOp44
 70
     1
102
RTVSPropertyOp45
 70
     1
102
RTVSPropertyOp46
 70
     1
102
RTVSPropertyOp47
 70
     1
102
RTVSPropertyOp48
 70
     1
102
RTVSPropertyOp49
 70
     1
102
RTVSPropertyOp50
 70
     1
102
RTVSPropertyOp51
 70
     0
102
RTVSPropertyOp52
 70
     0
102
RTVSPropertyOp53
 70
     1
102
RTVSPropertyOp54
 70
     1
102
RTVSPropertyOp55
 70
     1
102
RTVSPropertyOp56
 70
     1
102
RTVSPropertyOp57
 70
     1
102
RTVSPost2010Prop28
280
     0
102
RTVSPost2010PropOp28
 70
     1
102
RTVSPost2010Prop29
280
     1
102
RTVSPost2010PropOp29
 70
     1
102
RTVSPost2010Prop30
280
     1
102
RTVSPost2010PropOp30
 70
     1
102
RTVSPost2010Prop31
280
     0
102
RTVSPost2010PropOp31
 70
     1
102
RTVSPost2010Prop32
280
     0
102
RTVSPost2010PropOp32
 70
     1
102
RTVSPost2010Prop33
280
     0
102
RTVSPost2010PropOp33
 70
     1
102
RTVSPost2010Prop34
280
     0
102
RTVSPost2010PropOp34
 70
     1
102
RTVSPost2010Prop35
280
     0
102
RTVSPost2010PropOp35
 70
     1
102
RTVSPost2010Prop36
280
     0
102
RTVSPost2010PropOp36
 70
     1
102
RTVSPost2010Prop37
 90
       50
102
RTVSPost2010PropOp37
 70
     1
102
RTVSPost2010Prop38
140
0.0
102
RTVSPost2010PropOp38
 70
     1
102
RTVSPost2010Prop39
140
1.0
102
RTVSPost2010PropOp39
 70
     1
102
RTVSPost2010Prop40
 90
        0
102
RTVSPost2010PropOp40
 70
     1
102
RTVSPost2010Prop41ColorIndex
 90
       18
102
RTVSPost2010Prop41ColorRGB
 90
        0
102
RTVSPost2010PropOp41
 70
     1
102
RTVSPost2010Prop42
 90
       50
102
RTVSPost2010PropOp42
 70
     1
102
RTVSPost2010Prop43
 90
        3
102
RTVSPost2010PropOp43
 70
     1
102
RTVSPost2010Prop44ColorIndex
 90
        5
102
RTVSPost2010Prop44ColorRGB
 90
      255
102
RTVSPost2010PropOp44
 70
     1
102
RTVSPost2010Prop45
280
     0
102
RTVSPost2010PropOp45
 70
     1
102
RTVSPost2010Prop46
 90
       50
102
RTVSPost2010PropOp46
 70
     1
102
RTVSPost2010Prop47
 90
       50
102
RTVSPost2010PropOp47
 70
     1
102
RTVSPost2010Prop48
 90
       50
102
RTVSPost2010PropOp48
 70
     1
102
RTVSPost2010Prop49
280
     0
102
RTVSPost2010PropOp49
 70
     1
102
RTVSPost2010Prop50
 90
       50
102
RTVSPost2010PropOp50
 70
     1
102
RTVSPost2010Prop51ColorIndex
 90
      256
102
RTVSPost2010Prop51ColorRGB
 90
-16777216
102
RTVSPost2010PropOp51
 70
     0
102
RTVSPost2010Prop52
140
1.0
102
RTVSPost2010PropOp52
 70
     0
102
RTVSPost2010Prop53
 90
        2
102
RTVSPost2010PropOp53
 70
     1
102
RTVSPost2010Prop54
  1
strokes_ogs.tif
102
RTVSPost2010PropOp54
 70
     1
102
RTVSPost2010Prop55
280
     0
102
RTVSPost2010PropOp55
 70
     1
102
RTVSPost2010Prop56
140
1.0
102
RTVSPost2010PropOp56
 70
     1
102
RTVSPost2010Prop57
140
1.0
102
RTVSPost2010PropOp57
 70
     1
  0
XRECORD
  5
BF
102
{ACAD_REACTORS
330
BE
102
}
330
BE
100
AcDbXrecord
280
     1
102
RTVSPropertyOp0
 70
     1
102
RTVSPropertyOp1
 70
     1
102
RTVSPropertyOp2
 70
     1
102
RTVSPropertyOp3
 70
     1
102
RTVSPropertyOp4
 70
     1
102
RTVSPropertyOp5
 70
     1
102
RTVSPropertyOp6
 70
     1
102
RTVSPropertyOp7
 70
     1
102
RTVSPropertyOp8
 70
     1
102
RTVSPropertyOp9
 70
     1
102
RTVSPropertyOp10
 70
     1
102
RTVSPropertyOp11
 70
     1
102
RTVSPropertyOp12
 70
     1
102
RTVSPropertyOp13
 70
     1
102
RTVSPropertyOp14
 70
     1
102
RTVSPropertyOp15
 70
     1
102
RTVSPropertyOp16
 70
     1
102
RTVSPropertyOp17
 70
     1
102
RTVSPropertyOp18
 70
     1
102
RTVSPropertyOp19
 70
     1
102
RTVSPropertyOp20
 70
     1
102
RTVSPropertyOp21
 70
     1
102
RTVSPropertyOp22
 70
     1
102
RTVSPropertyOp23
 70
     1
102
RTVSPropertyOp24
 70
     1
102
RTVSPropertyOp25
 70
     1
102
RTVSPropertyOp26
 70
     1
102
RTVSPropertyOp27
 70
     1
102
RTVSPropertyOp28
 70
     1
102
RTVSPropertyOp29
 70
     1
102
RTVSPropertyOp30
 70
     1
102
RTVSPropertyOp31
 70
     1
102
RTVSPropertyOp32
 70
     1
102
RTVSPropertyOp33
 70
     1
102
RTVSPropertyOp34
 70
     1
102
RTVSPropertyOp35
 70
     1
102
RTVSPropertyOp36
 70
     1
102
RTVSPropertyOp37
 70
     1
102
RTVSPropertyOp38
 70
     1
102
RTVSPropertyOp39
 70
     1
102
RTVSPropertyOp40
 70
     1
102
RTVSPropertyOp41
 70
     1
102
RTVSPropertyOp42
 70
     1
102
RTVSPropertyOp43
 70
     1
102
RTVSPropertyOp44
 70
     1
102
RTVSPropertyOp45
 70
     1
102
RTVSPropertyOp46
 70
     1
102
RTVSPropertyOp47
 70
     1
102
RTVSPropertyOp48
 70
     1
102
RTVSPropertyOp49
 70
     1
102
RTVSPropertyOp50
 70
     1
102
RTVSPropertyOp51
 70
     0
102
RTVSPropertyOp52
 70
     0
102
RTVSPropertyOp53
 70
     1
102
RTVSPropertyOp54
 70
     1
102
RTVSPropertyOp55
 70
     1
102
RTVSPropertyOp56
 70
     1
102
RTVSPropertyOp57
 70
     1
102
RTVSPost2010Prop28
280
     0
102
RTVSPost2010PropOp28
 70
     1
102
RTVSPost2010Prop29
280
     1
102
RTVSPost2010PropOp29
 70
     1
102
RTVSPost2010Prop30
280
     1
102
RTVSPost2010PropOp30
 70
     1
102
RTVSPost2010Prop31
280
     0
102
RTVSPost2010PropOp31
 70
     1
102
RTVSPost2010Prop32
280
     0
102
RTVSPost2010PropOp32
 70
     1
102
RTVSPost2010Prop33
280
     0
102
RTVSPost2010PropOp33
 70
     1
102
RTVSPost2010Prop34
280
     0
102
RTVSPost2010PropOp34
 70
     1
102
RTVSPost2010Prop35
280
     0
102
RTVSPost2010PropOp35
 70
     1
102
RTVSPost2010Prop36
280
     0
102
RTVSPost2010PropOp36
 70
     1
102
RTVSPost2010Prop37
 90
       50
102
RTVSPost2010PropOp37
 70
     1
102
RTVSPost2010Prop38
140
0.0
102
RTVSPost2010PropOp38
 70
     1
102
RTVSPost2010Prop39
140
1.0
102
RTVSPost2010PropOp39
 70
     1
102
RTVSPost2010Prop40
 90
        0
102
RTVSPost2010PropOp40
 70
     1
102
RTVSPost2010Prop41ColorIndex
 90
       18
102
RTVSPost2010Prop41ColorRGB
 90
        0
102
RTVSPost2010PropOp41
 70
     1
102
RTVSPost2010Prop42
 90
       50
102
RTVSPost2010PropOp42
 70
     1
102
RTVSPost2010Prop43
 90
        3
102
RTVSPost2010PropOp43
 70
     1
102
RTVSPost2010Prop44ColorIndex
 90
        5
102
RTVSPost2010Prop44ColorRGB
 90
      255
102
RTVSPost2010PropOp44
 70
     1
102
RTVSPost2010Prop45
280
     0
102
RTVSPost2010PropOp45
 70
     1
102
RTVSPost2010Prop46
 90
       50
102
RTVSPost2010PropOp46
 70
     1
102
RTVSPost2010Prop47
 90
       50
102
RTVSPost2010PropOp47
 70
     1
102
RTVSPost2010Prop48
 90
       50
102
RTVSPost2010PropOp48
 70
     1
102
RTVSPost2010Prop49
280
     0
102
RTVSPost2010PropOp49
 70
     1
102
RTVSPost2010Prop50
 90
       50
102
RTVSPost2010PropOp50
 70
     1
102
RTVSPost2010Prop51ColorIndex
 90
      256
102
RTVSPost2010Prop51ColorRGB
 90
-16777216
102
RTVSPost2010PropOp51
 70
     0
102
RTVSPost2010Prop52
140
1.0
102
RTVSPost2010PropOp52
 70
     0
102
RTVSPost2010Prop53
 90
        2
102
RTVSPost2010PropOp53
 70
     1
102
RTVSPost2010Prop54
  1
strokes_ogs.tif
102
RTVSPost2010PropOp54
 70
     1
102
RTVSPost2010Prop55
280
     0
102
RTVSPost2010PropOp55
 70
     1
102
RTVSPost2010Prop56
140
1.0
102
RTVSPost2010PropOp56
 70
     1
102
RTVSPost2010Prop57
140
1.0
102
RTVSPost2010PropOp57
 70
     1
  0
XRECORD
  5
BD
102
{ACAD_REACTORS
330
BC
102
}
330
BC
100
AcDbXrecord
280
     1
102
RTVSPropertyOp0
 70
     1
102
RTVSPropertyOp1
 70
     1
102
RTVSPropertyOp2
 70
     1
102
RTVSPropertyOp3
 70
     1
102
RTVSPropertyOp4
 70
     1
102
RTVSPropertyOp5
 70
     1
102
RTVSPropertyOp6
 70
     1
102
RTVSPropertyOp7
 70
     1
102
RTVSPropertyOp8
 70
     1
102
RTVSPropertyOp9
 70
     1
102
RTVSPropertyOp10
 70
     1
102
RTVSPropertyOp11
 70
     1
102
RTVSPropertyOp12
 70
     1
102
RTVSPropertyOp13
 70
     1
102
RTVSPropertyOp14
 70
     1
102
RTVSPropertyOp15
 70
     1
102
RTVSPropertyOp16
 70
     1
102
RTVSPropertyOp17
 70
     1
102
RTVSPropertyOp18
 70
     1
102
RTVSPropertyOp19
 70
     1
102
RTVSPropertyOp20
 70
     1
102
RTVSPropertyOp21
 70
     1
102
RTVSPropertyOp22
 70
     1
102
RTVSPropertyOp23
 70
     1
102
RTVSPropertyOp24
 70
     1
102
RTVSPropertyOp25
 70
     1
102
RTVSPropertyOp26
 70
     1
102
RTVSPropertyOp27
 70
     1
102
RTVSPropertyOp28
 70
     1
102
RTVSPropertyOp29
 70
     1
102
RTVSPropertyOp30
 70
     1
102
RTVSPropertyOp31
 70
     1
102
RTVSPropertyOp32
 70
     1
102
RTVSPropertyOp33
 70
     1
102
RTVSPropertyOp34
 70
     1
102
RTVSPropertyOp35
 70
     1
102
RTVSPropertyOp36
 70
     1
102
RTVSPropertyOp37
 70
     1
102
RTVSPropertyOp38
 70
     1
102
RTVSPropertyOp39
 70
     1
102
RTVSPropertyOp40
 70
     1
102
RTVSPropertyOp41
 70
     1
102
RTVSPropertyOp42
 70
     1
102
RTVSPropertyOp43
 70
     1
102
RTVSPropertyOp44
 70
     1
102
RTVSPropertyOp45
 70
     1
102
RTVSPropertyOp46
 70
     1
102
RTVSPropertyOp47
 70
     1
102
RTVSPropertyOp48
 70
     1
102
RTVSPropertyOp49
 70
     1
102
RTVSPropertyOp50
 70
     1
102
RTVSPropertyOp51
 70
     0
102
RTVSPropertyOp52
 70
     0
102
RTVSPropertyOp53
 70
     1
102
RTVSPropertyOp54
 70
     1
102
RTVSPropertyOp55
 70
     1
102
RTVSPropertyOp56
 70
     1
102
RTVSPropertyOp57
 70
     1
102
RTVSPost2010Prop28
280
     0
102
RTVSPost2010PropOp28
 70
     1
102
RTVSPost2010Prop29
280
     1
102
RTVSPost2010PropOp29
 70
     1
102
RTVSPost2010Prop30
280
     1
102
RTVSPost2010PropOp30
 70
     1
102
RTVSPost2010Prop31
280
     0
102
RTVSPost2010PropOp31
 70
     1
102
RTVSPost2010Prop32
280
     0
102
RTVSPost2010PropOp32
 70
     1
102
RTVSPost2010Prop33
280
     0
102
RTVSPost2010PropOp33
 70
     1
102
RTVSPost2010Prop34
280
     0
102
RTVSPost2010PropOp34
 70
     1
102
RTVSPost2010Prop35
280
     0
102
RTVSPost2010PropOp35
 70
     1
102
RTVSPost2010Prop36
280
     0
102
RTVSPost2010PropOp36
 70
     1
102
RTVSPost2010Prop37
 90
       50
102
RTVSPost2010PropOp37
 70
     1
102
RTVSPost2010Prop38
140
0.0
102
RTVSPost2010PropOp38
 70
     1
102
RTVSPost2010Prop39
140
1.0
102
RTVSPost2010PropOp39
 70
     1
102
RTVSPost2010Prop40
 90
        0
102
RTVSPost2010PropOp40
 70
     1
102
RTVSPost2010Prop41ColorIndex
 90
       18
102
RTVSPost2010Prop41ColorRGB
 90
        0
102
RTVSPost2010PropOp41
 70
     1
102
RTVSPost2010Prop42
 90
       50
102
RTVSPost2010PropOp42
 70
     1
102
RTVSPost2010Prop43
 90
        3
102
RTVSPost2010PropOp43
 70
     1
102
RTVSPost2010Prop44ColorIndex
 90
        5
102
RTVSPost2010Prop44ColorRGB
 90
      255
102
RTVSPost2010PropOp44
 70
     1
102
RTVSPost2010Prop45
280
     0
102
RTVSPost2010PropOp45
 70
     1
102
RTVSPost2010Prop46
 90
       50
102
RTVSPost2010PropOp46
 70
     1
102
RTVSPost2010Prop47
 90
       50
102
RTVSPost2010PropOp47
 70
     1
102
RTVSPost2010Prop48
 90
       50
102
RTVSPost2010PropOp48
 70
     1
102
RTVSPost2010Prop49
280
     0
102
RTVSPost2010PropOp49
 70
     1
102
RTVSPost2010Prop50
 90
       50
102
RTVSPost2010PropOp50
 70
     1
102
RTVSPost2010Prop51ColorIndex
 90
      256
102
RTVSPost2010Prop51ColorRGB
 90
-16777216
102
RTVSPost2010PropOp51
 70
     0
102
RTVSPost2010Prop52
140
1.0
102
RTVSPost2010PropOp52
 70
     0
102
RTVSPost2010Prop53
 90
        2
102
RTVSPost2010PropOp53
 70
     1
102
RTVSPost2010Prop54
  1
strokes_ogs.tif
102
RTVSPost2010PropOp54
 70
     1
102
RTVSPost2010Prop55
280
     0
102
RTVSPost2010PropOp55
 70
     1
102
RTVSPost2010Prop56
140
1.0
102
RTVSPost2010PropOp56
 70
     1
102
RTVSPost2010Prop57
140
1.0
102
RTVSPost2010PropOp57
 70
     1
  0
XRECORD
  5
B7
102
{ACAD_REACTORS
330
B6
102
}
330
B6
100
AcDbXrecord
280
     1
102
RTVSPropertyOp0
 70
     1
102
RTVSPropertyOp1
 70
     1
102
RTVSPropertyOp2
 70
     1
102
RTVSPropertyOp3
 70
     1
102
RTVSPropertyOp4
 70
     1
102
RTVSPropertyOp5
 70
     1
102
RTVSPropertyOp6
 70
     1
102
RTVSPropertyOp7
 70
     1
102
RTVSPropertyOp8
 70
     1
102
RTVSPropertyOp9
 70
     1
102
RTVSPropertyOp10
 70
     1
102
RTVSPropertyOp11
 70
     1
102
RTVSPropertyOp12
 70
     1
102
RTVSPropertyOp13
 70
     1
102
RTVSPropertyOp14
 70
     1
102
RTVSPropertyOp15
 70
     1
102
RTVSPropertyOp16
 70
     1
102
RTVSPropertyOp17
 70
     1
102
RTVSPropertyOp18
 70
     1
102
RTVSPropertyOp19
 70
     1
102
RTVSPropertyOp20
 70
     1
102
RTVSPropertyOp21
 70
     1
102
RTVSPropertyOp22
 70
     1
102
RTVSPropertyOp23
 70
     1
102
RTVSPropertyOp24
 70
     1
102
RTVSPropertyOp25
 70
     1
102
RTVSPropertyOp26
 70
     1
102
RTVSPropertyOp27
 70
     1
102
RTVSPropertyOp28
 70
     1
102
RTVSPropertyOp29
 70
     1
102
RTVSPropertyOp30
 70
     1
102
RTVSPropertyOp31
 70
     1
102
RTVSPropertyOp32
 70
     1
102
RTVSPropertyOp33
 70
     1
102
RTVSPropertyOp34
 70
     1
102
RTVSPropertyOp35
 70
     1
102
RTVSPropertyOp36
 70
     1
102
RTVSPropertyOp37
 70
     1
102
RTVSPropertyOp38
 70
     1
102
RTVSPropertyOp39
 70
     1
102
RTVSPropertyOp40
 70
     1
102
RTVSPropertyOp41
 70
     1
102
RTVSPropertyOp42
 70
     1
102
RTVSPropertyOp43
 70
     1
102
RTVSPropertyOp44
 70
     1
102
RTVSPropertyOp45
 70
     1
102
RTVSPropertyOp46
 70
     1
102
RTVSPropertyOp47
 70
     1
102
RTVSPropertyOp48
 70
     1
102
RTVSPropertyOp49
 70
     1
102
RTVSPropertyOp50
 70
     1
102
RTVSPropertyOp51
 70
     0
102
RTVSPropertyOp52
 70
     0
102
RTVSPropertyOp53
 70
     1
102
RTVSPropertyOp54
 70
     1
102
RTVSPropertyOp55
 70
     1
102
RTVSPropertyOp56
 70
     1
102
RTVSPropertyOp57
 70
     1
102
RTVSPost2010Prop28
280
     0
102
RTVSPost2010PropOp28
 70
     1
102
RTVSPost2010Prop29
280
     1
102
RTVSPost2010PropOp29
 70
     1
102
RTVSPost2010Prop30
280
     1
102
RTVSPost2010PropOp30
 70
     1
102
RTVSPost2010Prop31
280
     0
102
RTVSPost2010PropOp31
 70
     1
102
RTVSPost2010Prop32
280
     0
102
RTVSPost2010PropOp32
 70
     1
102
RTVSPost2010Prop33
280
     0
102
RTVSPost2010PropOp33
 70
     1
102
RTVSPost2010Prop34
280
     0
102
RTVSPost2010PropOp34
 70
     1
102
RTVSPost2010Prop35
280
     0
102
RTVSPost2010PropOp35
 70
     1
102
RTVSPost2010Prop36
280
     0
102
RTVSPost2010PropOp36
 70
     1
102
RTVSPost2010Prop37
 90
       50
102
RTVSPost2010PropOp37
 70
     1
102
RTVSPost2010Prop38
140
0.0
102
RTVSPost2010PropOp38
 70
     1
102
RTVSPost2010Prop39
140
1.0
102
RTVSPost2010PropOp39
 70
     1
102
RTVSPost2010Prop40
 90
        0
102
RTVSPost2010PropOp40
 70
     1
102
RTVSPost2010Prop41ColorIndex
 90
       18
102
RTVSPost2010Prop41ColorRGB
 90
        0
102
RTVSPost2010PropOp41
 70
     1
102
RTVSPost2010Prop42
 90
       50
102
RTVSPost2010PropOp42
 70
     1
102
RTVSPost2010Prop43
 90
        3
102
RTVSPost2010PropOp43
 70
     1
102
RTVSPost2010Prop44ColorIndex
 90
        5
102
RTVSPost2010Prop44ColorRGB
 90
      255
102
RTVSPost2010PropOp44
 70
     1
102
RTVSPost2010Prop45
280
     0
102
RTVSPost2010PropOp45
 70
     1
102
RTVSPost2010Prop46
 90
       50
102
RTVSPost2010PropOp46
 70
     1
102
RTVSPost2010Prop47
 90
       50
102
RTVSPost2010PropOp47
 70
     1
102
RTVSPost2010Prop48
 90
       50
102
RTVSPost2010PropOp48
 70
     1
102
RTVSPost2010Prop49
280
     0
102
RTVSPost2010PropOp49
 70
     1
102
RTVSPost2010Prop50
 90
       50
102
RTVSPost2010PropOp50
 70
     1
102
RTVSPost2010Prop51ColorIndex
 90
      256
102
RTVSPost2010Prop51ColorRGB
 90
-16777216
102
RTVSPost2010PropOp51
 70
     0
102
RTVSPost2010Prop52
140
1.0
102
RTVSPost2010PropOp52
 70
     0
102
RTVSPost2010Prop53
 90
        2
102
RTVSPost2010PropOp53
 70
     1
102
RTVSPost2010Prop54
  1
strokes_ogs.tif
102
RTVSPost2010PropOp54
 70
     1
102
RTVSPost2010Prop55
280
     0
102
RTVSPost2010PropOp55
 70
     1
102
RTVSPost2010Prop56
140
1.0
102
RTVSPost2010PropOp56
 70
     1
102
RTVSPost2010Prop57
140
1.0
102
RTVSPost2010PropOp57
 70
     1
  0
XRECORD
  5
B9
102
{ACAD_REACTORS
330
B8
102
}
330
B8
100
AcDbXrecord
280
     1
102
RTVSPropertyOp0
 70
     1
102
RTVSPropertyOp1
 70
     1
102
RTVSPropertyOp2
 70
     1
102
RTVSPropertyOp3
 70
     1
102
RTVSPropertyOp4
 70
     1
102
RTVSPropertyOp5
 70
     1
102
RTVSPropertyOp6
 70
     1
102
RTVSPropertyOp7
 70
     1
102
RTVSPropertyOp8
 70
     1
102
RTVSPropertyOp9
 70
     1
102
RTVSPropertyOp10
 70
     1
102
RTVSPropertyOp11
 70
     1
102
RTVSPropertyOp12
 70
     1
102
RTVSPropertyOp13
 70
     1
102
RTVSPropertyOp14
 70
     1
102
RTVSPropertyOp15
 70
     1
102
RTVSPropertyOp16
 70
     1
102
RTVSPropertyOp17
 70
     1
102
RTVSPropertyOp18
 70
     1
102
RTVSPropertyOp19
 70
     1
102
RTVSPropertyOp20
 70
     1
102
RTVSPropertyOp21
 70
     1
102
RTVSPropertyOp22
 70
     1
102
RTVSPropertyOp23
 70
     1
102
RTVSPropertyOp24
 70
     1
102
RTVSPropertyOp25
 70
     1
102
RTVSPropertyOp26
 70
     1
102
RTVSPropertyOp27
 70
     1
102
RTVSPropertyOp28
 70
     1
102
RTVSPropertyOp29
 70
     1
102
RTVSPropertyOp30
 70
     1
102
RTVSPropertyOp31
 70
     1
102
RTVSPropertyOp32
 70
     1
102
RTVSPropertyOp33
 70
     1
102
RTVSPropertyOp34
 70
     1
102
RTVSPropertyOp35
 70
     1
102
RTVSPropertyOp36
 70
     1
102
RTVSPropertyOp37
 70
     1
102
RTVSPropertyOp38
 70
     1
102
RTVSPropertyOp39
 70
     1
102
RTVSPropertyOp40
 70
     1
102
RTVSPropertyOp41
 70
     1
102
RTVSPropertyOp42
 70
     1
102
RTVSPropertyOp43
 70
     1
102
RTVSPropertyOp44
 70
     1
102
RTVSPropertyOp45
 70
     1
102
RTVSPropertyOp46
 70
     1
102
RTVSPropertyOp47
 70
     1
102
RTVSPropertyOp48
 70
     1
102
RTVSPropertyOp49
 70
     1
102
RTVSPropertyOp50
 70
     1
102
RTVSPropertyOp51
 70
     0
102
RTVSPropertyOp52
 70
     0
102
RTVSPropertyOp53
 70
     1
102
RTVSPropertyOp54
 70
     1
102
RTVSPropertyOp55
 70
     1
102
RTVSPropertyOp56
 70
     1
102
RTVSPropertyOp57
 70
     1
102
RTVSPost2010Prop28
280
     0
102
RTVSPost2010PropOp28
 70
     1
102
RTVSPost2010Prop29
280
     1
102
RTVSPost2010PropOp29
 70
     1
102
RTVSPost2010Prop30
280
     1
102
RTVSPost2010PropOp30
 70
     1
102
RTVSPost2010Prop31
280
     0
102
RTVSPost2010PropOp31
 70
     1
102
RTVSPost2010Prop32
280
     0
102
RTVSPost2010PropOp32
 70
     1
102
RTVSPost2010Prop33
280
     0
102
RTVSPost2010PropOp33
 70
     1
102
RTVSPost2010Prop34
280
     0
102
RTVSPost2010PropOp34
 70
     1
102
RTVSPost2010Prop35
280
     0
102
RTVSPost2010PropOp35
 70
     1
102
RTVSPost2010Prop36
280
     0
102
RTVSPost2010PropOp36
 70
     1
102
RTVSPost2010Prop37
 90
       50
102
RTVSPost2010PropOp37
 70
     1
102
RTVSPost2010Prop38
140
0.0
102
RTVSPost2010PropOp38
 70
     1
102
RTVSPost2010Prop39
140
1.0
102
RTVSPost2010PropOp39
 70
     1
102
RTVSPost2010Prop40
 90
        0
102
RTVSPost2010PropOp40
 70
     1
102
RTVSPost2010Prop41ColorIndex
 90
       18
102
RTVSPost2010Prop41ColorRGB
 90
        0
102
RTVSPost2010PropOp41
 70
     1
102
RTVSPost2010Prop42
 90
       50
102
RTVSPost2010PropOp42
 70
     1
102
RTVSPost2010Prop43
 90
        3
102
RTVSPost2010PropOp43
 70
     1
102
RTVSPost2010Prop44ColorIndex
 90
        5
102
RTVSPost2010Prop44ColorRGB
 90
      255
102
RTVSPost2010PropOp44
 70
     1
102
RTVSPost2010Prop45
280
     0
102
RTVSPost2010PropOp45
 70
     1
102
RTVSPost2010Prop46
 90
       50
102
RTVSPost2010PropOp46
 70
     1
102
RTVSPost2010Prop47
 90
       50
102
RTVSPost2010PropOp47
 70
     1
102
RTVSPost2010Prop48
 90
       50
102
RTVSPost2010PropOp48
 70
     1
102
RTVSPost2010Prop49
280
     0
102
RTVSPost2010PropOp49
 70
     1
102
RTVSPost2010Prop50
 90
       50
102
RTVSPost2010PropOp50
 70
     1
102
RTVSPost2010Prop51ColorIndex
 90
      256
102
RTVSPost2010Prop51ColorRGB
 90
-16777216
102
RTVSPost2010PropOp51
 70
     0
102
RTVSPost2010Prop52
140
1.0
102
RTVSPost2010PropOp52
 70
     0
102
RTVSPost2010Prop53
 90
        2
102
RTVSPost2010PropOp53
 70
     1
102
RTVSPost2010Prop54
  1
strokes_ogs.tif
102
RTVSPost2010PropOp54
 70
     1
102
RTVSPost2010Prop55
280
     0
102
RTVSPost2010PropOp55
 70
     1
102
RTVSPost2010Prop56
140
1.0
102
RTVSPost2010PropOp56
 70
     1
102
RTVSPost2010Prop57
140
1.0
102
RTVSPost2010PropOp57
 70
     1
  0
XRECORD
  5
A9
102
{ACAD_REACTORS
330
A8
102
}
330
A8
100
AcDbXrecord
280
     1
102
RTVSPropertyOp0
 70
     1
102
RTVSPropertyOp1
 70
     1
102
RTVSPropertyOp2
 70
     1
102
RTVSPropertyOp3
 70
     1
102
RTVSPropertyOp4
 70
     1
102
RTVSPropertyOp5
 70
     1
102
RTVSPropertyOp6
 70
     1
102
RTVSPropertyOp7
 70
     1
102
RTVSPropertyOp8
 70
     1
102
RTVSPropertyOp9
 70
     1
102
RTVSPropertyOp10
 70
     1
102
RTVSPropertyOp11
 70
     1
102
RTVSPropertyOp12
 70
     1
102
RTVSPropertyOp13
 70
     1
102
RTVSPropertyOp14
 70
     1
102
RTVSPropertyOp15
 70
     1
102
RTVSPropertyOp16
 70
     1
102
RTVSPropertyOp17
 70
     1
102
RTVSPropertyOp18
 70
     1
102
RTVSPropertyOp19
 70
     1
102
RTVSPropertyOp20
 70
     1
102
RTVSPropertyOp21
 70
     1
102
RTVSPropertyOp22
 70
     1
102
RTVSPropertyOp23
 70
     1
102
RTVSPropertyOp24
 70
     1
102
RTVSPropertyOp25
 70
     1
102
RTVSPropertyOp26
 70
     1
102
RTVSPropertyOp27
 70
     1
102
RTVSPropertyOp28
 70
     1
102
RTVSPropertyOp29
 70
     1
102
RTVSPropertyOp30
 70
     1
102
RTVSPropertyOp31
 70
     1
102
RTVSPropertyOp32
 70
     1
102
RTVSPropertyOp33
 70
     1
102
RTVSPropertyOp34
 70
     1
102
RTVSPropertyOp35
 70
     1
102
RTVSPropertyOp36
 70
     1
102
RTVSPropertyOp37
 70
     1
102
RTVSPropertyOp38
 70
     1
102
RTVSPropertyOp39
 70
     1
102
RTVSPropertyOp40
 70
     1
102
RTVSPropertyOp41
 70
     1
102
RTVSPropertyOp42
 70
     1
102
RTVSPropertyOp43
 70
     1
102
RTVSPropertyOp44
 70
     1
102
RTVSPropertyOp45
 70
     1
102
RTVSPropertyOp46
 70
     1
102
RTVSPropertyOp47
 70
     1
102
RTVSPropertyOp48
 70
     1
102
RTVSPropertyOp49
 70
     1
102
RTVSPropertyOp50
 70
     1
102
RTVSPropertyOp51
 70
     0
102
RTVSPropertyOp52
 70
     0
102
RTVSPropertyOp53
 70
     1
102
RTVSPropertyOp54
 70
     1
102
RTVSPropertyOp55
 70
     1
102
RTVSPropertyOp56
 70
     1
102
RTVSPropertyOp57
 70
     1
102
RTVSPost2010Prop28
280
     0
102
RTVSPost2010PropOp28
 70
     1
102
RTVSPost2010Prop29
280
     1
102
RTVSPost2010PropOp29
 70
     1
102
RTVSPost2010Prop30
280
     1
102
RTVSPost2010PropOp30
 70
     1
102
RTVSPost2010Prop31
280
     0
102
RTVSPost2010PropOp31
 70
     1
102
RTVSPost2010Prop32
280
     0
102
RTVSPost2010PropOp32
 70
     1
102
RTVSPost2010Prop33
280
     0
102
RTVSPost2010PropOp33
 70
     1
102
RTVSPost2010Prop34
280
     0
102
RTVSPost2010PropOp34
 70
     1
102
RTVSPost2010Prop35
280
     0
102
RTVSPost2010PropOp35
 70
     1
102
RTVSPost2010Prop36
280
     0
102
RTVSPost2010PropOp36
 70
     1
102
RTVSPost2010Prop37
 90
       50
102
RTVSPost2010PropOp37
 70
     1
102
RTVSPost2010Prop38
140
0.0
102
RTVSPost2010PropOp38
 70
     1
102
RTVSPost2010Prop39
140
1.0
102
RTVSPost2010PropOp39
 70
     1
102
RTVSPost2010Prop40
 90
        0
102
RTVSPost2010PropOp40
 70
     1
102
RTVSPost2010Prop41ColorIndex
 90
       18
102
RTVSPost2010Prop41ColorRGB
 90
        0
102
RTVSPost2010PropOp41
 70
     1
102
RTVSPost2010Prop42
 90
       50
102
RTVSPost2010PropOp42
 70
     1
102
RTVSPost2010Prop43
 90
        3
102
RTVSPost2010PropOp43
 70
     1
102
RTVSPost2010Prop44ColorIndex
 90
        5
102
RTVSPost2010Prop44ColorRGB
 90
      255
102
RTVSPost2010PropOp44
 70
     1
102
RTVSPost2010Prop45
280
     0
102
RTVSPost2010PropOp45
 70
     1
102
RTVSPost2010Prop46
 90
       50
102
RTVSPost2010PropOp46
 70
     1
102
RTVSPost2010Prop47
 90
       50
102
RTVSPost2010PropOp47
 70
     1
102
RTVSPost2010Prop48
 90
       50
102
RTVSPost2010PropOp48
 70
     1
102
RTVSPost2010Prop49
280
     0
102
RTVSPost2010PropOp49
 70
     1
102
RTVSPost2010Prop50
 90
       50
102
RTVSPost2010PropOp50
 70
     1
102
RTVSPost2010Prop51ColorIndex
 90
      256
102
RTVSPost2010Prop51ColorRGB
 90
-16777216
102
RTVSPost2010PropOp51
 70
     0
102
RTVSPost2010Prop52
140
1.0
102
RTVSPost2010PropOp52
 70
     0
102
RTVSPost2010Prop53
 90
        2
102
RTVSPost2010PropOp53
 70
     1
102
RTVSPost2010Prop54
  1
strokes_ogs.tif
102
RTVSPost2010PropOp54
 70
     1
102
RTVSPost2010Prop55
280
     0
102
RTVSPost2010PropOp55
 70
     1
102
RTVSPost2010Prop56
140
1.0
102
RTVSPost2010PropOp56
 70
     1
102
RTVSPost2010Prop57
140
1.0
102
RTVSPost2010PropOp57
 70
     1
  0
XRECORD
  5
9B
102
{ACAD_REACTORS
330
9A
102
}
330
9A
100
AcDbXrecord
280
     1
102
RTVSPropertyOp0
 70
     1
102
RTVSPropertyOp1
 70
     1
102
RTVSPropertyOp2
 70
     1
102
RTVSPropertyOp3
 70
     1
102
RTVSPropertyOp4
 70
     1
102
RTVSPropertyOp5
 70
     1
102
RTVSPropertyOp6
 70
     1
102
RTVSPropertyOp7
 70
     1
102
RTVSPropertyOp8
 70
     1
102
RTVSPropertyOp9
 70
     1
102
RTVSPropertyOp10
 70
     1
102
RTVSPropertyOp11
 70
     1
102
RTVSPropertyOp12
 70
     1
102
RTVSPropertyOp13
 70
     1
102
RTVSPropertyOp14
 70
     1
102
RTVSPropertyOp15
 70
     1
102
RTVSPropertyOp16
 70
     1
102
RTVSPropertyOp17
 70
     1
102
RTVSPropertyOp18
 70
     1
102
RTVSPropertyOp19
 70
     1
102
RTVSPropertyOp20
 70
     1
102
RTVSPropertyOp21
 70
     1
102
RTVSPropertyOp22
 70
     1
102
RTVSPropertyOp23
 70
     1
102
RTVSPropertyOp24
 70
     1
102
RTVSPropertyOp25
 70
     1
102
RTVSPropertyOp26
 70
     1
102
RTVSPropertyOp27
 70
     1
102
RTVSPropertyOp28
 70
     1
102
RTVSPropertyOp29
 70
     1
102
RTVSPropertyOp30
 70
     1
102
RTVSPropertyOp31
 70
     1
102
RTVSPropertyOp32
 70
     1
102
RTVSPropertyOp33
 70
     1
102
RTVSPropertyOp34
 70
     1
102
RTVSPropertyOp35
 70
     1
102
RTVSPropertyOp36
 70
     1
102
RTVSPropertyOp37
 70
     1
102
RTVSPropertyOp38
 70
     1
102
RTVSPropertyOp39
 70
     1
102
RTVSPropertyOp40
 70
     1
102
RTVSPropertyOp41
 70
     1
102
RTVSPropertyOp42
 70
     1
102
RTVSPropertyOp43
 70
     1
102
RTVSPropertyOp44
 70
     1
102
RTVSPropertyOp45
 70
     1
102
RTVSPropertyOp46
 70
     1
102
RTVSPropertyOp47
 70
     1
102
RTVSPropertyOp48
 70
     1
102
RTVSPropertyOp49
 70
     1
102
RTVSPropertyOp50
 70
     1
102
RTVSPropertyOp51
 70
     0
102
RTVSPropertyOp52
 70
     0
102
RTVSPropertyOp53
 70
     1
102
RTVSPropertyOp54
 70
     1
102
RTVSPropertyOp55
 70
     1
102
RTVSPropertyOp56
 70
     1
102
RTVSPropertyOp57
 70
     1
102
RTVSPost2010Prop28
280
     0
102
RTVSPost2010PropOp28
 70
     1
102
RTVSPost2010Prop29
280
     1
102
RTVSPost2010PropOp29
 70
     1
102
RTVSPost2010Prop30
280
     1
102
RTVSPost2010PropOp30
 70
     1
102
RTVSPost2010Prop31
280
     0
102
RTVSPost2010PropOp31
 70
     1
102
RTVSPost2010Prop32
280
     0
102
RTVSPost2010PropOp32
 70
     1
102
RTVSPost2010Prop33
280
     0
102
RTVSPost2010PropOp33
 70
     1
102
RTVSPost2010Prop34
280
     0
102
RTVSPost2010PropOp34
 70
     1
102
RTVSPost2010Prop35
280
     0
102
RTVSPost2010PropOp35
 70
     1
102
RTVSPost2010Prop36
280
     0
102
RTVSPost2010PropOp36
 70
     1
102
RTVSPost2010Prop37
 90
       50
102
RTVSPost2010PropOp37
 70
     1
102
RTVSPost2010Prop38
140
0.0
102
RTVSPost2010PropOp38
 70
     1
102
RTVSPost2010Prop39
140
1.0
102
RTVSPost2010PropOp39
 70
     1
102
RTVSPost2010Prop40
 90
        0
102
RTVSPost2010PropOp40
 70
     1
102
RTVSPost2010Prop41ColorIndex
 90
       18
102
RTVSPost2010Prop41ColorRGB
 90
        0
102
RTVSPost2010PropOp41
 70
     1
102
RTVSPost2010Prop42
 90
       50
102
RTVSPost2010PropOp42
 70
     1
102
RTVSPost2010Prop43
 90
        3
102
RTVSPost2010PropOp43
 70
     1
102
RTVSPost2010Prop44ColorIndex
 90
        5
102
RTVSPost2010Prop44ColorRGB
 90
      255
102
RTVSPost2010PropOp44
 70
     1
102
RTVSPost2010Prop45
280
     0
102
RTVSPost2010PropOp45
 70
     1
102
RTVSPost2010Prop46
 90
       50
102
RTVSPost2010PropOp46
 70
     1
102
RTVSPost2010Prop47
 90
       50
102
RTVSPost2010PropOp47
 70
     1
102
RTVSPost2010Prop48
 90
       50
102
RTVSPost2010PropOp48
 70
     1
102
RTVSPost2010Prop49
280
     0
102
RTVSPost2010PropOp49
 70
     1
102
RTVSPost2010Prop50
 90
       50
102
RTVSPost2010PropOp50
 70
     1
102
RTVSPost2010Prop51ColorIndex
 90
      256
102
RTVSPost2010Prop51ColorRGB
 90
-16777216
102
RTVSPost2010PropOp51
 70
     0
102
RTVSPost2010Prop52
140
1.0
102
RTVSPost2010PropOp52
 70
     0
102
RTVSPost2010Prop53
 90
        2
102
RTVSPost2010PropOp53
 70
     1
102
RTVSPost2010Prop54
  1
strokes_ogs.tif
102
RTVSPost2010PropOp54
 70
     1
102
RTVSPost2010Prop55
280
     0
102
RTVSPost2010PropOp55
 70
     1
102
RTVSPost2010Prop56
140
1.0
102
RTVSPost2010PropOp56
 70
     1
102
RTVSPost2010Prop57
140
1.0
102
RTVSPost2010PropOp57
 70
     1
  0
XRECORD
  5
BB
102
{ACAD_REACTORS
330
BA
102
}
330
BA
100
AcDbXrecord
280
     1
102
RTVSPropertyOp0
 70
     1
102
RTVSPropertyOp1
 70
     1
102
RTVSPropertyOp2
 70
     1
102
RTVSPropertyOp3
 70
     1
102
RTVSPropertyOp4
 70
     1
102
RTVSPropertyOp5
 70
     1
102
RTVSPropertyOp6
 70
     1
102
RTVSPropertyOp7
 70
     1
102
RTVSPropertyOp8
 70
     1
102
RTVSPropertyOp9
 70
     1
102
RTVSPropertyOp10
 70
     1
102
RTVSPropertyOp11
 70
     1
102
RTVSPropertyOp12
 70
     1
102
RTVSPropertyOp13
 70
     1
102
RTVSPropertyOp14
 70
     1
102
RTVSPropertyOp15
 70
     1
102
RTVSPropertyOp16
 70
     1
102
RTVSPropertyOp17
 70
     1
102
RTVSPropertyOp18
 70
     1
102
RTVSPropertyOp19
 70
     1
102
RTVSPropertyOp20
 70
     1
102
RTVSPropertyOp21
 70
     1
102
RTVSPropertyOp22
 70
     1
102
RTVSPropertyOp23
 70
     1
102
RTVSPropertyOp24
 70
     1
102
RTVSPropertyOp25
 70
     1
102
RTVSPropertyOp26
 70
     1
102
RTVSPropertyOp27
 70
     1
102
RTVSPropertyOp28
 70
     1
102
RTVSPropertyOp29
 70
     1
102
RTVSPropertyOp30
 70
     1
102
RTVSPropertyOp31
 70
     1
102
RTVSPropertyOp32
 70
     1
102
RTVSPropertyOp33
 70
     1
102
RTVSPropertyOp34
 70
     1
102
RTVSPropertyOp35
 70
     1
102
RTVSPropertyOp36
 70
     1
102
RTVSPropertyOp37
 70
     1
102
RTVSPropertyOp38
 70
     1
102
RTVSPropertyOp39
 70
     1
102
RTVSPropertyOp40
 70
     1
102
RTVSPropertyOp41
 70
     1
102
RTVSPropertyOp42
 70
     1
102
RTVSPropertyOp43
 70
     1
102
RTVSPropertyOp44
 70
     1
102
RTVSPropertyOp45
 70
     1
102
RTVSPropertyOp46
 70
     1
102
RTVSPropertyOp47
 70
     1
102
RTVSPropertyOp48
 70
     1
102
RTVSPropertyOp49
 70
     1
102
RTVSPropertyOp50
 70
     1
102
RTVSPropertyOp51
 70
     0
102
RTVSPropertyOp52
 70
     0
102
RTVSPropertyOp53
 70
     1
102
RTVSPropertyOp54
 70
     1
102
RTVSPropertyOp55
 70
     1
102
RTVSPropertyOp56
 70
     1
102
RTVSPropertyOp57
 70
     1
102
RTVSPost2010Prop28
280
     0
102
RTVSPost2010PropOp28
 70
     1
102
RTVSPost2010Prop29
280
     1
102
RTVSPost2010PropOp29
 70
     1
102
RTVSPost2010Prop30
280
     1
102
RTVSPost2010PropOp30
 70
     1
102
RTVSPost2010Prop31
280
     0
102
RTVSPost2010PropOp31
 70
     1
102
RTVSPost2010Prop32
280
     0
102
RTVSPost2010PropOp32
 70
     1
102
RTVSPost2010Prop33
280
     0
102
RTVSPost2010PropOp33
 70
     1
102
RTVSPost2010Prop34
280
     0
102
RTVSPost2010PropOp34
 70
     1
102
RTVSPost2010Prop35
280
     0
102
RTVSPost2010PropOp35
 70
     1
102
RTVSPost2010Prop36
280
     0
102
RTVSPost2010PropOp36
 70
     1
102
RTVSPost2010Prop37
 90
       50
102
RTVSPost2010PropOp37
 70
     1
102
RTVSPost2010Prop38
140
0.0
102
RTVSPost2010PropOp38
 70
     1
102
RTVSPost2010Prop39
140
1.0
102
RTVSPost2010PropOp39
 70
     1
102
RTVSPost2010Prop40
 90
        0
102
RTVSPost2010PropOp40
 70
     1
102
RTVSPost2010Prop41ColorIndex
 90
       18
102
RTVSPost2010Prop41ColorRGB
 90
        0
102
RTVSPost2010PropOp41
 70
     1
102
RTVSPost2010Prop42
 90
       50
102
RTVSPost2010PropOp42
 70
     1
102
RTVSPost2010Prop43
 90
        3
102
RTVSPost2010PropOp43
 70
     1
102
RTVSPost2010Prop44ColorIndex
 90
        5
102
RTVSPost2010Prop44ColorRGB
 90
      255
102
RTVSPost2010PropOp44
 70
     1
102
RTVSPost2010Prop45
280
     0
102
RTVSPost2010PropOp45
 70
     1
102
RTVSPost2010Prop46
 90
       50
102
RTVSPost2010PropOp46
 70
     1
102
RTVSPost2010Prop47
 90
       50
102
RTVSPost2010PropOp47
 70
     1
102
RTVSPost2010Prop48
 90
       50
102
RTVSPost2010PropOp48
 70
     1
102
RTVSPost2010Prop49
280
     0
102
RTVSPost2010PropOp49
 70
     1
102
RTVSPost2010Prop50
 90
       50
102
RTVSPost2010PropOp50
 70
     1
102
RTVSPost2010Prop51ColorIndex
 90
      256
102
RTVSPost2010Prop51ColorRGB
 90
-16777216
102
RTVSPost2010PropOp51
 70
     0
102
RTVSPost2010Prop52
140
1.0
102
RTVSPost2010PropOp52
 70
     0
102
RTVSPost2010Prop53
 90
        2
102
RTVSPost2010PropOp53
 70
     1
102
RTVSPost2010Prop54
  1
strokes_ogs.tif
102
RTVSPost2010PropOp54
 70
     1
102
RTVSPost2010Prop55
280
     0
102
RTVSPost2010PropOp55
 70
     1
102
RTVSPost2010Prop56
140
1.0
102
RTVSPost2010PropOp56
 70
     1
102
RTVSPost2010Prop57
140
1.0
102
RTVSPost2010PropOp57
 70
     1
  0
ENDSEC
  0
EOF
