0
SECTION
2
HEADER
9
$ACADVER
1
AC1003
9
$EXTMIN
10
0.000000
20
0.000000
9
$EXTMAX
10
1279.000000
20
1449.000000
9
$LIMMIN
10
0.000000
20
0.000000
9
$LIMMAX
10
1279.000000
20
1449.000000
0
ENDSEC
0
SECTION
2
TABLES
0
TABLE
2
LAYER
70
1
0
LAYER
2
0
70
64
62
3
6
CONTINUOUS
0
ENDTAB
0
ENDSEC
0
SECTION
2
BLOCKS
0
ENDSEC
0
SECTION
2
ENTITIES
0
POLYLINE
8
0
6
CONTINUOUS
66
1
10
0.0
20
0.0
30
0.000000
0
VERTEX
8
0
10
1200.000000
20
1439.000000
30
0.000000
0
VERTEX
8
0
10
1200.000000
20
1440.000000
30
0.000000
0
VERTEX
8
0
10
1205.000000
20
1434.000000
30
0.000000
0
VERTEX
8
0
10
1200.000000
20
1439.000000
30
0.000000
0
SEQEND
0
POLYLINE
8
0
6
CONTINUOUS
66
1
10
0.0
20
0.0
30
0.000000
0
VERTEX
8
0
10
521.000000
20
1350.000000
30
0.000000
0
VERTEX
8
0
10
540.000000
20
1350.000000
30
0.000000
0
VERTEX
8
0
10
560.000000
20
1347.000000
30
0.000000
0
VERTEX
8
0
10
579.000000
20
1339.000000
30
0.000000
0
VERTEX
8
0
10
580.000000
20
1337.000000
30
0.000000
0
VERTEX
8
0
10
590.000000
20
1331.000000
30
0.000000
0
VERTEX
8
0
10
607.000000
20
1315.000000
30
0.000000
0
VERTEX
8
0
10
619.000000
20
1296.000000
30
0.000000
0
VERTEX
8
0
10
627.000000
20
1275.000000
30
0.000000
0
VERTEX
8
0
10
630.000000
20
1259.000000
30
0.000000
0
VERTEX
8
0
10
631.000000
20
1225.000000
30
0.000000
0
VERTEX
8
0
10
633.000000
20
1223.000000
30
0.000000
0
VERTEX
8
0
10
652.000000
20
1226.000000
30
0.000000
0
VERTEX
8
0
10
690.000000
20
1225.000000
30
0.000000
0
VERTEX
8
0
10
685.000000
20
1221.000000
30
0.000000
0
VERTEX
8
0
10
666.000000
20
1217.000000
30
0.000000
0
VERTEX
8
0
10
629.000000
20
1205.000000
30
0.000000
0
VERTEX
8
0
10
628.000000
20
1198.000000
30
0.000000
0
VERTEX
8
0
10
624.000000
20
1191.000000
30
0.000000
0
VERTEX
8
0
10
626.000000
20
1188.000000
30
0.000000
0
VERTEX
8
0
10
635.000000
20
1190.000000
30
0.000000
0
VERTEX
8
0
10
690.000000
20
1192.000000
30
0.000000
0
VERTEX
8
0
10
714.000000
20
1190.000000
30
0.000000
0
VERTEX
8
0
10
737.000000
20
1185.000000
30
0.000000
0
VERTEX
8
0
10
724.000000
20
1185.000000
30
0.000000
0
VERTEX
8
0
10
724.000000
20
1182.000000
30
0.000000
0
VERTEX
8
0
10
729.000000
20
1181.000000
30
0.000000
0
VERTEX
8
0
10
677.000000
20
1182.000000
30
0.000000
0
VERTEX
8
0
10
633.000000
20
1176.000000
30
0.000000
0
VERTEX
8
0
10
629.000000
20
1174.000000
30
0.000000
0
VERTEX
8
0
10
633.000000
20
1171.000000
30
0.000000
0
VERTEX
8
0
10
652.000000
20
1167.000000
30
0.000000
0
VERTEX
8
0
10
674.000000
20
1160.000000
30
0.000000
0
VERTEX
8
0
10
693.000000
20
1152.000000
30
0.000000
0
VERTEX
8
0
10
729.000000
20
1126.000000
30
0.000000
0
VERTEX
8
0
10
739.000000
20
1116.000000
30
0.000000
0
VERTEX
8
0
10
758.000000
20
1091.000000
30
0.000000
0
VERTEX
8
0
10
772.000000
20
1067.000000
30
0.000000
0
VERTEX
8
0
10
781.000000
20
1047.000000
30
0.000000
0
VERTEX
8
0
10
789.000000
20
1019.000000
30
0.000000
0
VERTEX
8
0
10
795.000000
20
978.000000
30
0.000000
0
VERTEX
8
0
10
795.000000
20
937.000000
30
0.000000
0
VERTEX
8
0
10
789.000000
20
899.000000
30
0.000000
0
VERTEX
8
0
10
783.000000
20
878.000000
30
0.000000
0
VERTEX
8
0
10
768.000000
20
846.000000
30
0.000000
0
VERTEX
8
0
10
758.000000
20
830.000000
30
0.000000
0
VERTEX
8
0
10
747.000000
20
817.000000
30
0.000000
0
VERTEX
8
0
10
759.000000
20
804.000000
30
0.000000
0
VERTEX
8
0
10
759.000000
20
785.000000
30
0.000000
0
VERTEX
8
0
10
785.000000
20
793.000000
30
0.000000
0
VERTEX
8
0
10
827.000000
20
802.000000
30
0.000000
0
VERTEX
8
0
10
848.000000
20
804.000000
30
0.000000
0
VERTEX
8
0
10
903.000000
20
805.000000
30
0.000000
0
VERTEX
8
0
10
914.000000
20
814.000000
30
0.000000
0
VERTEX
8
0
10
918.000000
20
823.000000
30
0.000000
0
VERTEX
8
0
10
918.000000
20
827.000000
30
0.000000
0
VERTEX
8
0
10
923.000000
20
836.000000
30
0.000000
0
VERTEX
8
0
10
932.000000
20
842.000000
30
0.000000
0
VERTEX
8
0
10
940.000000
20
842.000000
30
0.000000
0
VERTEX
8
0
10
947.000000
20
837.000000
30
0.000000
0
VERTEX
8
0
10
947.000000
20
825.000000
30
0.000000
0
VERTEX
8
0
10
972.000000
20
820.000000
30
0.000000
0
VERTEX
8
0
10
985.000000
20
820.000000
30
0.000000
0
VERTEX
8
0
10
985.000000
20
823.000000
30
0.000000
0
VERTEX
8
0
10
962.000000
20
839.000000
30
0.000000
0
VERTEX
8
0
10
949.000000
20
852.000000
30
0.000000
0
VERTEX
8
0
10
941.000000
20
868.000000
30
0.000000
0
VERTEX
8
0
10
941.000000
20
883.000000
30
0.000000
0
VERTEX
8
0
10
945.000000
20
894.000000
30
0.000000
0
VERTEX
8
0
10
953.000000
20
902.000000
30
0.000000
0
VERTEX
8
0
10
968.000000
20
910.000000
30
0.000000
0
VERTEX
8
0
10
975.000000
20
910.000000
30
0.000000
0
VERTEX
8
0
10
986.000000
20
905.000000
30
0.000000
0
VERTEX
8
0
10
997.000000
20
894.000000
30
0.000000
0
VERTEX
8
0
10
1000.000000
20
893.000000
30
0.000000
0
VERTEX
8
0
10
1004.000000
20
896.000000
30
0.000000
0
VERTEX
8
0
10
1011.000000
20
907.000000
30
0.000000
0
VERTEX
8
0
10
1017.000000
20
912.000000
30
0.000000
0
VERTEX
8
0
10
1027.000000
20
916.000000
30
0.000000
0
VERTEX
8
0
10
1043.000000
20
915.000000
30
0.000000
0
VERTEX
8
0
10
1053.000000
20
907.000000
30
0.000000
0
VERTEX
8
0
10
1057.000000
20
900.000000
30
0.000000
0
VERTEX
8
0
10
1059.000000
20
891.000000
30
0.000000
0
VERTEX
8
0
10
1058.000000
20
874.000000
30
0.000000
0
VERTEX
8
0
10
1049.000000
20
851.000000
30
0.000000
0
VERTEX
8
0
10
1038.000000
20
835.000000
30
0.000000
0
VERTEX
8
0
10
1027.000000
20
824.000000
30
0.000000
0
VERTEX
8
0
10
1031.000000
20
821.000000
30
0.000000
0
VERTEX
8
0
10
1031.000000
20
812.000000
30
0.000000
0
VERTEX
8
0
10
1034.000000
20
806.000000
30
0.000000
0
VERTEX
8
0
10
1029.000000
20
798.000000
30
0.000000
0
VERTEX
8
0
10
1020.000000
20
790.000000
30
0.000000
0
VERTEX
8
0
10
1021.000000
20
786.000000
30
0.000000
0
VERTEX
8
0
10
1012.000000
20
777.000000
30
0.000000
0
VERTEX
8
0
10
994.000000
20
767.000000
30
0.000000
0
VERTEX
8
0
10
967.000000
20
756.000000
30
0.000000
0
VERTEX
8
0
10
933.000000
20
752.000000
30
0.000000
0
VERTEX
8
0
10
899.000000
20
735.000000
30
0.000000
0
VERTEX
8
0
10
852.000000
20
707.000000
30
0.000000
0
VERTEX
8
0
10
801.000000
20
684.000000
30
0.000000
0
VERTEX
8
0
10
709.000000
20
654.000000
30
0.000000
0
VERTEX
8
0
10
728.000000
20
616.000000
30
0.000000
0
VERTEX
8
0
10
735.000000
20
593.000000
30
0.000000
0
VERTEX
8
0
10
740.000000
20
554.000000
30
0.000000
0
VERTEX
8
0
10
739.000000
20
512.000000
30
0.000000
0
VERTEX
8
0
10
737.000000
20
509.000000
30
0.000000
0
VERTEX
8
0
10
734.000000
20
493.000000
30
0.000000
0
VERTEX
8
0
10
720.000000
20
459.000000
30
0.000000
0
VERTEX
8
0
10
707.000000
20
417.000000
30
0.000000
0
VERTEX
8
0
10
699.000000
20
399.000000
30
0.000000
0
VERTEX
8
0
10
659.000000
20
330.000000
30
0.000000
0
VERTEX
8
0
10
654.000000
20
316.000000
30
0.000000
0
VERTEX
8
0
10
652.000000
20
301.000000
30
0.000000
0
VERTEX
8
0
10
655.000000
20
295.000000
30
0.000000
0
VERTEX
8
0
10
673.000000
20
289.000000
30
0.000000
0
VERTEX
8
0
10
693.000000
20
279.000000
30
0.000000
0
VERTEX
8
0
10
701.000000
20
271.000000
30
0.000000
0
VERTEX
8
0
10
706.000000
20
257.000000
30
0.000000
0
VERTEX
8
0
10
706.000000
20
249.000000
30
0.000000
0
VERTEX
8
0
10
703.000000
20
240.000000
30
0.000000
0
VERTEX
8
0
10
694.000000
20
230.000000
30
0.000000
0
VERTEX
8
0
10
658.000000
20
219.000000
30
0.000000
0
VERTEX
8
0
10
654.000000
20
201.000000
30
0.000000
0
VERTEX
8
0
10
649.000000
20
191.000000
30
0.000000
0
VERTEX
8
0
10
640.000000
20
179.000000
30
0.000000
0
VERTEX
8
0
10
626.000000
20
179.000000
30
0.000000
0
VERTEX
8
0
10
620.000000
20
175.000000
30
0.000000
0
VERTEX
8
0
10
610.000000
20
175.000000
30
0.000000
0
VERTEX
8
0
10
583.000000
20
183.000000
30
0.000000
0
VERTEX
8
0
10
555.000000
20
183.000000
30
0.000000
0
VERTEX
8
0
10
542.000000
20
180.000000
30
0.000000
0
VERTEX
8
0
10
529.000000
20
180.000000
30
0.000000
0
VERTEX
8
0
10
514.000000
20
185.000000
30
0.000000
0
VERTEX
8
0
10
506.000000
20
196.000000
30
0.000000
0
VERTEX
8
0
10
501.000000
20
206.000000
30
0.000000
0
VERTEX
8
0
10
495.000000
20
228.000000
30
0.000000
0
VERTEX
8
0
10
496.000000
20
270.000000
30
0.000000
0
VERTEX
8
0
10
490.000000
20
299.000000
30
0.000000
0
VERTEX
8
0
10
478.000000
20
328.000000
30
0.000000
0
VERTEX
8
0
10
449.000000
20
370.000000
30
0.000000
0
VERTEX
8
0
10
445.000000
20
377.000000
30
0.000000
0
VERTEX
8
0
10
441.000000
20
376.000000
30
0.000000
0
VERTEX
8
0
10
432.000000
20
370.000000
30
0.000000
0
VERTEX
8
0
10
421.000000
20
359.000000
30
0.000000
0
VERTEX
8
0
10
408.000000
20
338.000000
30
0.000000
0
VERTEX
8
0
10
368.000000
20
258.000000
30
0.000000
0
VERTEX
8
0
10
343.000000
20
229.000000
30
0.000000
0
VERTEX
8
0
10
319.000000
20
208.000000
30
0.000000
0
VERTEX
8
0
10
311.000000
20
202.000000
30
0.000000
0
VERTEX
8
0
10
292.000000
20
193.000000
30
0.000000
0
VERTEX
8
0
10
281.000000
20
191.000000
30
0.000000
0
VERTEX
8
0
10
262.000000
20
192.000000
30
0.000000
0
VERTEX
8
0
10
266.000000
20
193.000000
30
0.000000
0
VERTEX
8
0
10
264.000000
20
195.000000
30
0.000000
0
VERTEX
8
0
10
259.000000
20
196.000000
30
0.000000
0
VERTEX
8
0
10
279.000000
20
199.000000
30
0.000000
0
VERTEX
8
0
10
300.000000
20
209.000000
30
0.000000
0
VERTEX
8
0
10
319.000000
20
226.000000
30
0.000000
0
VERTEX
8
0
10
341.000000
20
252.000000
30
0.000000
0
VERTEX
8
0
10
368.000000
20
294.000000
30
0.000000
0
VERTEX
8
0
10
383.000000
20
327.000000
30
0.000000
0
VERTEX
8
0
10
388.000000
20
342.000000
30
0.000000
0
VERTEX
8
0
10
405.000000
20
372.000000
30
0.000000
0
VERTEX
8
0
10
419.000000
20
388.000000
30
0.000000
0
VERTEX
8
0
10
438.000000
20
402.000000
30
0.000000
0
VERTEX
8
0
10
440.000000
20
409.000000
30
0.000000
0
VERTEX
8
0
10
441.000000
20
438.000000
30
0.000000
0
VERTEX
8
0
10
445.000000
20
466.000000
30
0.000000
0
VERTEX
8
0
10
452.000000
20
487.000000
30
0.000000
0
VERTEX
8
0
10
469.000000
20
515.000000
30
0.000000
0
VERTEX
8
0
10
476.000000
20
529.000000
30
0.000000
0
VERTEX
8
0
10
472.000000
20
546.000000
30
0.000000
0
VERTEX
8
0
10
464.000000
20
564.000000
30
0.000000
0
VERTEX
8
0
10
449.000000
20
611.000000
30
0.000000
0
VERTEX
8
0
10
438.000000
20
640.000000
30
0.000000
0
VERTEX
8
0
10
432.000000
20
665.000000
30
0.000000
0
VERTEX
8
0
10
429.000000
20
688.000000
30
0.000000
0
VERTEX
8
0
10
429.000000
20
699.000000
30
0.000000
0
VERTEX
8
0
10
433.000000
20
728.000000
30
0.000000
0
VERTEX
8
0
10
432.000000
20
747.000000
30
0.000000
0
VERTEX
8
0
10
425.000000
20
756.000000
30
0.000000
0
VERTEX
8
0
10
406.000000
20
768.000000
30
0.000000
0
VERTEX
8
0
10
387.000000
20
790.000000
30
0.000000
0
VERTEX
8
0
10
379.000000
20
805.000000
30
0.000000
0
VERTEX
8
0
10
375.000000
20
823.000000
30
0.000000
0
VERTEX
8
0
10
376.000000
20
869.000000
30
0.000000
0
VERTEX
8
0
10
371.000000
20
877.000000
30
0.000000
0
VERTEX
8
0
10
355.000000
20
879.000000
30
0.000000
0
VERTEX
8
0
10
351.000000
20
881.000000
30
0.000000
0
VERTEX
8
0
10
321.000000
20
887.000000
30
0.000000
0
VERTEX
8
0
10
291.000000
20
902.000000
30
0.000000
0
VERTEX
8
0
10
268.000000
20
923.000000
30
0.000000
0
VERTEX
8
0
10
239.000000
20
958.000000
30
0.000000
0
VERTEX
8
0
10
229.000000
20
974.000000
30
0.000000
0
VERTEX
8
0
10
217.000000
20
998.000000
30
0.000000
0
VERTEX
8
0
10
210.000000
20
1017.000000
30
0.000000
0
VERTEX
8
0
10
205.000000
20
1045.000000
30
0.000000
0
VERTEX
8
0
10
205.000000
20
1101.000000
30
0.000000
0
VERTEX
8
0
10
211.000000
20
1128.000000
30
0.000000
0
VERTEX
8
0
10
230.000000
20
1185.000000
30
0.000000
0
VERTEX
8
0
10
248.000000
20
1221.000000
30
0.000000
0
VERTEX
8
0
10
265.000000
20
1248.000000
30
0.000000
0
VERTEX
8
0
10
276.000000
20
1261.000000
30
0.000000
0
VERTEX
8
0
10
297.000000
20
1281.000000
30
0.000000
0
VERTEX
8
0
10
326.000000
20
1300.000000
30
0.000000
0
VERTEX
8
0
10
344.000000
20
1308.000000
30
0.000000
0
VERTEX
8
0
10
372.000000
20
1314.000000
30
0.000000
0
VERTEX
8
0
10
406.000000
20
1314.000000
30
0.000000
0
VERTEX
8
0
10
451.000000
20
1305.000000
30
0.000000
0
VERTEX
8
0
10
461.000000
20
1319.000000
30
0.000000
0
VERTEX
8
0
10
471.000000
20
1329.000000
30
0.000000
0
VERTEX
8
0
10
485.000000
20
1339.000000
30
0.000000
0
VERTEX
8
0
10
499.000000
20
1346.000000
30
0.000000
0
VERTEX
8
0
10
521.000000
20
1350.000000
30
0.000000
0
SEQEND
0
POLYLINE
8
0
6
CONTINUOUS
66
1
10
0.0
20
0.0
30
0.000000
0
VERTEX
8
0
10
539.000000
20
1329.000000
30
0.000000
0
VERTEX
8
0
10
538.000000
20
1330.000000
30
0.000000
0
VERTEX
8
0
10
519.000000
20
1329.000000
30
0.000000
0
VERTEX
8
0
10
505.000000
20
1325.000000
30
0.000000
0
VERTEX
8
0
10
495.000000
20
1320.000000
30
0.000000
0
VERTEX
8
0
10
484.000000
20
1312.000000
30
0.000000
0
VERTEX
8
0
10
475.000000
20
1303.000000
30
0.000000
0
VERTEX
8
0
10
469.000000
20
1291.000000
30
0.000000
0
VERTEX
8
0
10
496.000000
20
1263.000000
30
0.000000
0
VERTEX
8
0
10
518.000000
20
1232.000000
30
0.000000
0
VERTEX
8
0
10
528.000000
20
1214.000000
30
0.000000
0
VERTEX
8
0
10
536.000000
20
1196.000000
30
0.000000
0
VERTEX
8
0
10
537.000000
20
1187.000000
30
0.000000
0
VERTEX
8
0
10
540.000000
20
1183.000000
30
0.000000
0
VERTEX
8
0
10
582.000000
20
1206.000000
30
0.000000
0
VERTEX
8
0
10
607.000000
20
1215.000000
30
0.000000
0
VERTEX
8
0
10
616.000000
20
1220.000000
30
0.000000
0
VERTEX
8
0
10
617.000000
20
1243.000000
30
0.000000
0
VERTEX
8
0
10
615.000000
20
1259.000000
30
0.000000
0
VERTEX
8
0
10
611.000000
20
1273.000000
30
0.000000
0
VERTEX
8
0
10
607.000000
20
1283.000000
30
0.000000
0
VERTEX
8
0
10
598.000000
20
1298.000000
30
0.000000
0
VERTEX
8
0
10
581.000000
20
1315.000000
30
0.000000
0
VERTEX
8
0
10
565.000000
20
1324.000000
30
0.000000
0
VERTEX
8
0
10
552.000000
20
1328.000000
30
0.000000
0
VERTEX
8
0
10
539.000000
20
1329.000000
30
0.000000
0
SEQEND
0
POLYLINE
8
0
6
CONTINUOUS
66
1
10
0.0
20
0.0
30
0.000000
0
VERTEX
8
0
10
407.000000
20
1292.000000
30
0.000000
0
VERTEX
8
0
10
406.000000
20
1293.000000
30
0.000000
0
VERTEX
8
0
10
383.000000
20
1293.000000
30
0.000000
0
VERTEX
8
0
10
350.000000
20
1287.000000
30
0.000000
0
VERTEX
8
0
10
343.000000
20
1284.000000
30
0.000000
0
VERTEX
8
0
10
331.000000
20
1275.000000
30
0.000000
0
VERTEX
8
0
10
348.000000
20
1275.000000
30
0.000000
0
VERTEX
8
0
10
375.000000
20
1272.000000
30
0.000000
0
VERTEX
8
0
10
406.000000
20
1261.000000
30
0.000000
0
VERTEX
8
0
10
431.000000
20
1250.000000
30
0.000000
0
VERTEX
8
0
10
463.000000
20
1231.000000
30
0.000000
0
VERTEX
8
0
10
488.000000
20
1205.000000
30
0.000000
0
VERTEX
8
0
10
504.000000
20
1179.000000
30
0.000000
0
VERTEX
8
0
10
521.000000
20
1119.000000
30
0.000000
0
VERTEX
8
0
10
528.000000
20
1083.000000
30
0.000000
0
VERTEX
8
0
10
528.000000
20
1061.000000
30
0.000000
0
VERTEX
8
0
10
522.000000
20
1029.000000
30
0.000000
0
VERTEX
8
0
10
512.000000
20
1005.000000
30
0.000000
0
VERTEX
8
0
10
496.000000
20
987.000000
30
0.000000
0
VERTEX
8
0
10
472.000000
20
970.000000
30
0.000000
0
VERTEX
8
0
10
463.000000
20
965.000000
30
0.000000
0
VERTEX
8
0
10
455.000000
20
963.000000
30
0.000000
0
VERTEX
8
0
10
449.000000
20
959.000000
30
0.000000
0
VERTEX
8
0
10
437.000000
20
935.000000
30
0.000000
0
VERTEX
8
0
10
436.000000
20
929.000000
30
0.000000
0
VERTEX
8
0
10
425.000000
20
913.000000
30
0.000000
0
VERTEX
8
0
10
424.000000
20
909.000000
30
0.000000
0
VERTEX
8
0
10
427.000000
20
908.000000
30
0.000000
0
VERTEX
8
0
10
469.000000
20
931.000000
30
0.000000
0
VERTEX
8
0
10
504.000000
20
959.000000
30
0.000000
0
VERTEX
8
0
10
501.000000
20
950.000000
30
0.000000
0
VERTEX
8
0
10
497.000000
20
946.000000
30
0.000000
0
VERTEX
8
0
10
494.000000
20
939.000000
30
0.000000
0
VERTEX
8
0
10
477.000000
20
917.000000
30
0.000000
0
VERTEX
8
0
10
475.000000
20
912.000000
30
0.000000
0
VERTEX
8
0
10
479.000000
20
910.000000
30
0.000000
0
VERTEX
8
0
10
488.000000
20
910.000000
30
0.000000
0
VERTEX
8
0
10
508.000000
20
906.000000
30
0.000000
0
VERTEX
8
0
10
535.000000
20
897.000000
30
0.000000
0
VERTEX
8
0
10
576.000000
20
877.000000
30
0.000000
0
VERTEX
8
0
10
593.000000
20
867.000000
30
0.000000
0
VERTEX
8
0
10
589.000000
20
867.000000
30
0.000000
0
VERTEX
8
0
10
588.000000
20
866.000000
30
0.000000
0
VERTEX
8
0
10
590.000000
20
864.000000
30
0.000000
0
VERTEX
8
0
10
560.000000
20
877.000000
30
0.000000
0
VERTEX
8
0
10
516.000000
20
891.000000
30
0.000000
0
VERTEX
8
0
10
495.000000
20
896.000000
30
0.000000
0
VERTEX
8
0
10
459.000000
20
899.000000
30
0.000000
0
VERTEX
8
0
10
454.000000
20
898.000000
30
0.000000
0
VERTEX
8
0
10
439.000000
20
890.000000
30
0.000000
0
VERTEX
8
0
10
474.000000
20
884.000000
30
0.000000
0
VERTEX
8
0
10
503.000000
20
877.000000
30
0.000000
0
VERTEX
8
0
10
529.000000
20
868.000000
30
0.000000
0
VERTEX
8
0
10
585.000000
20
840.000000
30
0.000000
0
VERTEX
8
0
10
577.000000
20
840.000000
30
0.000000
0
VERTEX
8
0
10
567.000000
20
845.000000
30
0.000000
0
VERTEX
8
0
10
477.000000
20
875.000000
30
0.000000
0
VERTEX
8
0
10
420.000000
20
881.000000
30
0.000000
0
VERTEX
8
0
10
406.000000
20
880.000000
30
0.000000
0
VERTEX
8
0
10
394.000000
20
877.000000
30
0.000000
0
VERTEX
8
0
10
391.000000
20
873.000000
30
0.000000
0
VERTEX
8
0
10
388.000000
20
855.000000
30
0.000000
0
VERTEX
8
0
10
389.000000
20
826.000000
30
0.000000
0
VERTEX
8
0
10
397.000000
20
805.000000
30
0.000000
0
VERTEX
8
0
10
403.000000
20
795.000000
30
0.000000
0
VERTEX
8
0
10
416.000000
20
782.000000
30
0.000000
0
VERTEX
8
0
10
430.000000
20
773.000000
30
0.000000
0
VERTEX
8
0
10
432.000000
20
774.000000
30
0.000000
0
VERTEX
8
0
10
431.000000
20
778.000000
30
0.000000
0
VERTEX
8
0
10
428.000000
20
781.000000
30
0.000000
0
VERTEX
8
0
10
419.000000
20
785.000000
30
0.000000
0
VERTEX
8
0
10
421.000000
20
787.000000
30
0.000000
0
VERTEX
8
0
10
418.000000
20
790.000000
30
0.000000
0
VERTEX
8
0
10
424.000000
20
793.000000
30
0.000000
0
VERTEX
8
0
10
442.000000
20
797.000000
30
0.000000
0
VERTEX
8
0
10
470.000000
20
793.000000
30
0.000000
0
VERTEX
8
0
10
506.000000
20
781.000000
30
0.000000
0
VERTEX
8
0
10
543.000000
20
765.000000
30
0.000000
0
VERTEX
8
0
10
570.000000
20
749.000000
30
0.000000
0
VERTEX
8
0
10
600.000000
20
728.000000
30
0.000000
0
VERTEX
8
0
10
616.000000
20
726.000000
30
0.000000
0
VERTEX
8
0
10
622.000000
20
723.000000
30
0.000000
0
VERTEX
8
0
10
631.000000
20
723.000000
30
0.000000
0
VERTEX
8
0
10
640.000000
20
731.000000
30
0.000000
0
VERTEX
8
0
10
647.000000
20
746.000000
30
0.000000
0
VERTEX
8
0
10
646.000000
20
752.000000
30
0.000000
0
VERTEX
8
0
10
648.000000
20
757.000000
30
0.000000
0
VERTEX
8
0
10
648.000000
20
764.000000
30
0.000000
0
VERTEX
8
0
10
645.000000
20
777.000000
30
0.000000
0
VERTEX
8
0
10
641.000000
20
784.000000
30
0.000000
0
VERTEX
8
0
10
637.000000
20
785.000000
30
0.000000
0
VERTEX
8
0
10
629.000000
20
794.000000
30
0.000000
0
VERTEX
8
0
10
619.000000
20
798.000000
30
0.000000
0
VERTEX
8
0
10
606.000000
20
800.000000
30
0.000000
0
VERTEX
8
0
10
608.000000
20
801.000000
30
0.000000
0
VERTEX
8
0
10
606.000000
20
803.000000
30
0.000000
0
VERTEX
8
0
10
634.000000
20
804.000000
30
0.000000
0
VERTEX
8
0
10
625.000000
20
814.000000
30
0.000000
0
VERTEX
8
0
10
619.000000
20
830.000000
30
0.000000
0
VERTEX
8
0
10
620.000000
20
849.000000
30
0.000000
0
VERTEX
8
0
10
632.000000
20
879.000000
30
0.000000
0
VERTEX
8
0
10
642.000000
20
891.000000
30
0.000000
0
VERTEX
8
0
10
657.000000
20
902.000000
30
0.000000
0
VERTEX
8
0
10
665.000000
20
904.000000
30
0.000000
0
VERTEX
8
0
10
675.000000
20
902.000000
30
0.000000
0
VERTEX
8
0
10
678.000000
20
903.000000
30
0.000000
0
VERTEX
8
0
10
678.000000
20
916.000000
30
0.000000
0
VERTEX
8
0
10
683.000000
20
943.000000
30
0.000000
0
VERTEX
8
0
10
689.000000
20
957.000000
30
0.000000
0
VERTEX
8
0
10
699.000000
20
970.000000
30
0.000000
0
VERTEX
8
0
10
694.000000
20
956.000000
30
0.000000
0
VERTEX
8
0
10
689.000000
20
934.000000
30
0.000000
0
VERTEX
8
0
10
687.000000
20
900.000000
30
0.000000
0
VERTEX
8
0
10
690.000000
20
882.000000
30
0.000000
0
VERTEX
8
0
10
695.000000
20
866.000000
30
0.000000
0
VERTEX
8
0
10
707.000000
20
842.000000
30
0.000000
0
VERTEX
8
0
10
710.000000
20
839.000000
30
0.000000
0
VERTEX
8
0
10
714.000000
20
839.000000
30
0.000000
0
VERTEX
8
0
10
715.000000
20
836.000000
30
0.000000
0
VERTEX
8
0
10
726.000000
20
853.000000
30
0.000000
0
VERTEX
8
0
10
733.000000
20
873.000000
30
0.000000
0
VERTEX
8
0
10
736.000000
20
893.000000
30
0.000000
0
VERTEX
8
0
10
739.000000
20
876.000000
30
0.000000
0
VERTEX
8
0
10
738.000000
20
860.000000
30
0.000000
0
VERTEX
8
0
10
735.000000
20
850.000000
30
0.000000
0
VERTEX
8
0
10
727.000000
20
837.000000
30
0.000000
0
VERTEX
8
0
10
729.000000
20
835.000000
30
0.000000
0
VERTEX
8
0
10
749.000000
20
860.000000
30
0.000000
0
VERTEX
8
0
10
755.000000
20
872.000000
30
0.000000
0
VERTEX
8
0
10
760.000000
20
894.000000
30
0.000000
0
VERTEX
8
0
10
761.000000
20
882.000000
30
0.000000
0
VERTEX
8
0
10
759.000000
20
871.000000
30
0.000000
0
VERTEX
8
0
10
751.000000
20
852.000000
30
0.000000
0
VERTEX
8
0
10
742.000000
20
838.000000
30
0.000000
0
VERTEX
8
0
10
727.000000
20
823.000000
30
0.000000
0
VERTEX
8
0
10
727.000000
20
818.000000
30
0.000000
0
VERTEX
8
0
10
731.000000
20
815.000000
30
0.000000
0
VERTEX
8
0
10
747.000000
20
831.000000
30
0.000000
0
VERTEX
8
0
10
761.000000
20
858.000000
30
0.000000
0
VERTEX
8
0
10
776.000000
20
896.000000
30
0.000000
0
VERTEX
8
0
10
782.000000
20
937.000000
30
0.000000
0
VERTEX
8
0
10
781.000000
20
972.000000
30
0.000000
0
VERTEX
8
0
10
775.000000
20
1010.000000
30
0.000000
0
VERTEX
8
0
10
757.000000
20
1054.000000
30
0.000000
0
VERTEX
8
0
10
736.000000
20
1091.000000
30
0.000000
0
VERTEX
8
0
10
725.000000
20
1104.000000
30
0.000000
0
VERTEX
8
0
10
710.000000
20
1118.000000
30
0.000000
0
VERTEX
8
0
10
683.000000
20
1137.000000
30
0.000000
0
VERTEX
8
0
10
648.000000
20
1154.000000
30
0.000000
0
VERTEX
8
0
10
628.000000
20
1159.000000
30
0.000000
0
VERTEX
8
0
10
602.000000
20
1162.000000
30
0.000000
0
VERTEX
8
0
10
565.000000
20
1162.000000
30
0.000000
0
VERTEX
8
0
10
556.000000
20
1161.000000
30
0.000000
0
VERTEX
8
0
10
549.000000
20
1158.000000
30
0.000000
0
VERTEX
8
0
10
548.000000
20
1154.000000
30
0.000000
0
VERTEX
8
0
10
554.000000
20
1136.000000
30
0.000000
0
VERTEX
8
0
10
558.000000
20
1116.000000
30
0.000000
0
VERTEX
8
0
10
541.000000
20
1136.000000
30
0.000000
0
VERTEX
8
0
10
537.000000
20
1143.000000
30
0.000000
0
VERTEX
8
0
10
522.000000
20
1186.000000
30
0.000000
0
VERTEX
8
0
10
507.000000
20
1217.000000
30
0.000000
0
VERTEX
8
0
10
492.000000
20
1239.000000
30
0.000000
0
VERTEX
8
0
10
481.000000
20
1252.000000
30
0.000000
0
VERTEX
8
0
10
460.000000
20
1272.000000
30
0.000000
0
VERTEX
8
0
10
443.000000
20
1283.000000
30
0.000000
0
VERTEX
8
0
10
414.000000
20
1292.000000
30
0.000000
0
VERTEX
8
0
10
407.000000
20
1292.000000
30
0.000000
0
SEQEND
0
POLYLINE
8
0
6
CONTINUOUS
66
1
10
0.0
20
0.0
30
0.000000
0
VERTEX
8
0
10
344.000000
20
1262.000000
30
0.000000
0
VERTEX
8
0
10
343.000000
20
1263.000000
30
0.000000
0
VERTEX
8
0
10
327.000000
20
1262.000000
30
0.000000
0
VERTEX
8
0
10
307.000000
20
1257.000000
30
0.000000
0
VERTEX
8
0
10
291.000000
20
1249.000000
30
0.000000
0
VERTEX
8
0
10
270.000000
20
1226.000000
30
0.000000
0
VERTEX
8
0
10
258.000000
20
1207.000000
30
0.000000
0
VERTEX
8
0
10
244.000000
20
1179.000000
30
0.000000
0
VERTEX
8
0
10
233.000000
20
1150.000000
30
0.000000
0
VERTEX
8
0
10
227.000000
20
1130.000000
30
0.000000
0
VERTEX
8
0
10
222.000000
20
1101.000000
30
0.000000
0
VERTEX
8
0
10
221.000000
20
1054.000000
30
0.000000
0
VERTEX
8
0
10
224.000000
20
1034.000000
30
0.000000
0
VERTEX
8
0
10
232.000000
20
1010.000000
30
0.000000
0
VERTEX
8
0
10
247.000000
20
982.000000
30
0.000000
0
VERTEX
8
0
10
267.000000
20
955.000000
30
0.000000
0
VERTEX
8
0
10
304.000000
20
921.000000
30
0.000000
0
VERTEX
8
0
10
324.000000
20
910.000000
30
0.000000
0
VERTEX
8
0
10
330.000000
20
910.000000
30
0.000000
0
VERTEX
8
0
10
339.000000
20
906.000000
30
0.000000
0
VERTEX
8
0
10
371.000000
20
906.000000
30
0.000000
0
VERTEX
8
0
10
390.000000
20
913.000000
30
0.000000
0
VERTEX
8
0
10
411.000000
20
926.000000
30
0.000000
0
VERTEX
8
0
10
425.000000
20
939.000000
30
0.000000
0
VERTEX
8
0
10
431.000000
20
950.000000
30
0.000000
0
VERTEX
8
0
10
432.000000
20
960.000000
30
0.000000
0
VERTEX
8
0
10
406.000000
20
973.000000
30
0.000000
0
VERTEX
8
0
10
394.000000
20
986.000000
30
0.000000
0
VERTEX
8
0
10
388.000000
20
996.000000
30
0.000000
0
VERTEX
8
0
10
388.000000
20
999.000000
30
0.000000
0
VERTEX
8
0
10
407.000000
20
988.000000
30
0.000000
0
VERTEX
8
0
10
417.000000
20
985.000000
30
0.000000
0
VERTEX
8
0
10
441.000000
20
985.000000
30
0.000000
0
VERTEX
8
0
10
453.000000
20
989.000000
30
0.000000
0
VERTEX
8
0
10
479.000000
20
1003.000000
30
0.000000
0
VERTEX
8
0
10
489.000000
20
1013.000000
30
0.000000
0
VERTEX
8
0
10
502.000000
20
1032.000000
30
0.000000
0
VERTEX
8
0
10
507.000000
20
1044.000000
30
0.000000
0
VERTEX
8
0
10
512.000000
20
1070.000000
30
0.000000
0
VERTEX
8
0
10
512.000000
20
1094.000000
30
0.000000
0
VERTEX
8
0
10
505.000000
20
1129.000000
30
0.000000
0
VERTEX
8
0
10
499.000000
20
1148.000000
30
0.000000
0
VERTEX
8
0
10
482.000000
20
1183.000000
30
0.000000
0
VERTEX
8
0
10
476.000000
20
1192.000000
30
0.000000
0
VERTEX
8
0
10
455.000000
20
1214.000000
30
0.000000
0
VERTEX
8
0
10
429.000000
20
1232.000000
30
0.000000
0
VERTEX
8
0
10
385.000000
20
1253.000000
30
0.000000
0
VERTEX
8
0
10
357.000000
20
1261.000000
30
0.000000
0
VERTEX
8
0
10
344.000000
20
1262.000000
30
0.000000
0
SEQEND
0
POLYLINE
8
0
6
CONTINUOUS
66
1
10
0.0
20
0.0
30
0.000000
0
VERTEX
8
0
10
614.000000
20
1199.000000
30
0.000000
0
VERTEX
8
0
10
613.000000
20
1200.000000
30
0.000000
0
VERTEX
8
0
10
609.000000
20
1200.000000
30
0.000000
0
VERTEX
8
0
10
592.000000
20
1193.000000
30
0.000000
0
VERTEX
8
0
10
577.000000
20
1184.000000
30
0.000000
0
VERTEX
8
0
10
573.000000
20
1180.000000
30
0.000000
0
VERTEX
8
0
10
576.000000
20
1177.000000
30
0.000000
0
VERTEX
8
0
10
584.000000
20
1178.000000
30
0.000000
0
VERTEX
8
0
10
587.000000
20
1180.000000
30
0.000000
0
VERTEX
8
0
10
607.000000
20
1185.000000
30
0.000000
0
VERTEX
8
0
10
614.000000
20
1199.000000
30
0.000000
0
SEQEND
0
POLYLINE
8
0
6
CONTINUOUS
66
1
10
0.0
20
0.0
30
0.000000
0
VERTEX
8
0
10
698.000000
20
1043.000000
30
0.000000
0
VERTEX
8
0
10
715.000000
20
1040.000000
30
0.000000
0
VERTEX
8
0
10
723.000000
20
1036.000000
30
0.000000
0
VERTEX
8
0
10
729.000000
20
1030.000000
30
0.000000
0
VERTEX
8
0
10
738.000000
20
1013.000000
30
0.000000
0
VERTEX
8
0
10
739.000000
20
996.000000
30
0.000000
0
VERTEX
8
0
10
737.000000
20
993.000000
30
0.000000
0
VERTEX
8
0
10
731.000000
20
992.000000
30
0.000000
0
VERTEX
8
0
10
727.000000
20
995.000000
30
0.000000
0
VERTEX
8
0
10
717.000000
20
1020.000000
30
0.000000
0
VERTEX
8
0
10
711.000000
20
1027.000000
30
0.000000
0
VERTEX
8
0
10
704.000000
20
1030.000000
30
0.000000
0
VERTEX
8
0
10
688.000000
20
1029.000000
30
0.000000
0
VERTEX
8
0
10
659.000000
20
1017.000000
30
0.000000
0
VERTEX
8
0
10
664.000000
20
1023.000000
30
0.000000
0
VERTEX
8
0
10
682.000000
20
1038.000000
30
0.000000
0
VERTEX
8
0
10
698.000000
20
1043.000000
30
0.000000
0
SEQEND
0
POLYLINE
8
0
6
CONTINUOUS
66
1
10
0.0
20
0.0
30
0.000000
0
VERTEX
8
0
10
668.000000
20
894.000000
30
0.000000
0
VERTEX
8
0
10
667.000000
20
895.000000
30
0.000000
0
VERTEX
8
0
10
652.000000
20
890.000000
30
0.000000
0
VERTEX
8
0
10
640.000000
20
877.000000
30
0.000000
0
VERTEX
8
0
10
634.000000
20
865.000000
30
0.000000
0
VERTEX
8
0
10
631.000000
20
854.000000
30
0.000000
0
VERTEX
8
0
10
631.000000
20
832.000000
30
0.000000
0
VERTEX
8
0
10
635.000000
20
821.000000
30
0.000000
0
VERTEX
8
0
10
639.000000
20
815.000000
30
0.000000
0
VERTEX
8
0
10
652.000000
20
802.000000
30
0.000000
0
VERTEX
8
0
10
660.000000
20
798.000000
30
0.000000
0
VERTEX
8
0
10
663.000000
20
800.000000
30
0.000000
0
VERTEX
8
0
10
665.000000
20
805.000000
30
0.000000
0
VERTEX
8
0
10
662.000000
20
810.000000
30
0.000000
0
VERTEX
8
0
10
659.000000
20
823.000000
30
0.000000
0
VERTEX
8
0
10
659.000000
20
837.000000
30
0.000000
0
VERTEX
8
0
10
662.000000
20
845.000000
30
0.000000
0
VERTEX
8
0
10
670.000000
20
854.000000
30
0.000000
0
VERTEX
8
0
10
681.000000
20
861.000000
30
0.000000
0
VERTEX
8
0
10
677.000000
20
887.000000
30
0.000000
0
VERTEX
8
0
10
672.000000
20
893.000000
30
0.000000
0
VERTEX
8
0
10
668.000000
20
894.000000
30
0.000000
0
SEQEND
0
POLYLINE
8
0
6
CONTINUOUS
66
1
10
0.0
20
0.0
30
0.000000
0
VERTEX
8
0
10
687.000000
20
847.000000
30
0.000000
0
VERTEX
8
0
10
685.000000
20
848.000000
30
0.000000
0
VERTEX
8
0
10
682.000000
20
844.000000
30
0.000000
0
VERTEX
8
0
10
687.000000
20
844.000000
30
0.000000
0
VERTEX
8
0
10
687.000000
20
847.000000
30
0.000000
0
SEQEND
0
POLYLINE
8
0
6
CONTINUOUS
66
1
10
0.0
20
0.0
30
0.000000
0
VERTEX
8
0
10
936.000000
20
832.000000
30
0.000000
0
VERTEX
8
0
10
934.000000
20
833.000000
30
0.000000
0
VERTEX
8
0
10
928.000000
20
829.000000
30
0.000000
0
VERTEX
8
0
10
922.000000
20
811.000000
30
0.000000
0
VERTEX
8
0
10
918.000000
20
806.000000
30
0.000000
0
VERTEX
8
0
10
896.000000
20
793.000000
30
0.000000
0
VERTEX
8
0
10
857.000000
20
793.000000
30
0.000000
0
VERTEX
8
0
10
832.000000
20
790.000000
30
0.000000
0
VERTEX
8
0
10
792.000000
20
780.000000
30
0.000000
0
VERTEX
8
0
10
746.000000
20
765.000000
30
0.000000
0
VERTEX
8
0
10
725.000000
20
753.000000
30
0.000000
0
VERTEX
8
0
10
728.000000
20
743.000000
30
0.000000
0
VERTEX
8
0
10
727.000000
20
731.000000
30
0.000000
0
VERTEX
8
0
10
719.000000
20
716.000000
30
0.000000
0
VERTEX
8
0
10
704.000000
20
704.000000
30
0.000000
0
VERTEX
8
0
10
678.000000
20
693.000000
30
0.000000
0
VERTEX
8
0
10
701.000000
20
667.000000
30
0.000000
0
VERTEX
8
0
10
704.000000
20
665.000000
30
0.000000
0
VERTEX
8
0
10
708.000000
20
665.000000
30
0.000000
0
VERTEX
8
0
10
732.000000
20
674.000000
30
0.000000
0
VERTEX
8
0
10
769.000000
20
685.000000
30
0.000000
0
VERTEX
8
0
10
810.000000
20
701.000000
30
0.000000
0
VERTEX
8
0
10
847.000000
20
719.000000
30
0.000000
0
VERTEX
8
0
10
890.000000
20
745.000000
30
0.000000
0
VERTEX
8
0
10
917.000000
20
759.000000
30
0.000000
0
VERTEX
8
0
10
929.000000
20
763.000000
30
0.000000
0
VERTEX
8
0
10
964.000000
20
767.000000
30
0.000000
0
VERTEX
8
0
10
977.000000
20
773.000000
30
0.000000
0
VERTEX
8
0
10
990.000000
20
776.000000
30
0.000000
0
VERTEX
8
0
10
1005.000000
20
784.000000
30
0.000000
0
VERTEX
8
0
10
1004.000000
20
786.000000
30
0.000000
0
VERTEX
8
0
10
987.000000
20
785.000000
30
0.000000
0
VERTEX
8
0
10
991.000000
20
789.000000
30
0.000000
0
VERTEX
8
0
10
1003.000000
20
793.000000
30
0.000000
0
VERTEX
8
0
10
1011.000000
20
798.000000
30
0.000000
0
VERTEX
8
0
10
1009.000000
20
800.000000
30
0.000000
0
VERTEX
8
0
10
1005.000000
20
798.000000
30
0.000000
0
VERTEX
8
0
10
986.000000
20
796.000000
30
0.000000
0
VERTEX
8
0
10
988.000000
20
797.000000
30
0.000000
0
VERTEX
8
0
10
986.000000
20
799.000000
30
0.000000
0
VERTEX
8
0
10
1002.000000
20
805.000000
30
0.000000
0
VERTEX
8
0
10
1009.000000
20
810.000000
30
0.000000
0
VERTEX
8
0
10
1008.000000
20
811.000000
30
0.000000
0
VERTEX
8
0
10
982.000000
20
809.000000
30
0.000000
0
VERTEX
8
0
10
958.000000
20
813.000000
30
0.000000
0
VERTEX
8
0
10
946.000000
20
813.000000
30
0.000000
0
VERTEX
8
0
10
931.000000
20
808.000000
30
0.000000
0
VERTEX
8
0
10
932.000000
20
816.000000
30
0.000000
0
VERTEX
8
0
10
938.000000
20
827.000000
30
0.000000
0
VERTEX
8
0
10
936.000000
20
832.000000
30
0.000000
0
SEQEND
0
POLYLINE
8
0
6
CONTINUOUS
66
1
10
0.0
20
0.0
30
0.000000
0
VERTEX
8
0
10
710.000000
20
806.000000
30
0.000000
0
VERTEX
8
0
10
709.000000
20
807.000000
30
0.000000
0
VERTEX
8
0
10
695.000000
20
807.000000
30
0.000000
0
VERTEX
8
0
10
689.000000
20
805.000000
30
0.000000
0
VERTEX
8
0
10
682.000000
20
800.000000
30
0.000000
0
VERTEX
8
0
10
667.000000
20
784.000000
30
0.000000
0
VERTEX
8
0
10
661.000000
20
773.000000
30
0.000000
0
VERTEX
8
0
10
664.000000
20
765.000000
30
0.000000
0
VERTEX
8
0
10
663.000000
20
755.000000
30
0.000000
0
VERTEX
8
0
10
657.000000
20
741.000000
30
0.000000
0
VERTEX
8
0
10
639.000000
20
717.000000
30
0.000000
0
VERTEX
8
0
10
665.000000
20
704.000000
30
0.000000
0
VERTEX
8
0
10
692.000000
20
716.000000
30
0.000000
0
VERTEX
8
0
10
705.000000
20
725.000000
30
0.000000
0
VERTEX
8
0
10
717.000000
20
738.000000
30
0.000000
0
VERTEX
8
0
10
718.000000
20
742.000000
30
0.000000
0
VERTEX
8
0
10
716.000000
20
747.000000
30
0.000000
0
VERTEX
8
0
10
711.000000
20
752.000000
30
0.000000
0
VERTEX
8
0
10
696.000000
20
749.000000
30
0.000000
0
VERTEX
8
0
10
689.000000
20
751.000000
30
0.000000
0
VERTEX
8
0
10
691.000000
20
755.000000
30
0.000000
0
VERTEX
8
0
10
710.000000
20
763.000000
30
0.000000
0
VERTEX
8
0
10
718.000000
20
772.000000
30
0.000000
0
VERTEX
8
0
10
724.000000
20
782.000000
30
0.000000
0
VERTEX
8
0
10
725.000000
20
788.000000
30
0.000000
0
VERTEX
8
0
10
722.000000
20
798.000000
30
0.000000
0
VERTEX
8
0
10
713.000000
20
806.000000
30
0.000000
0
VERTEX
8
0
10
710.000000
20
806.000000
30
0.000000
0
SEQEND
0
POLYLINE
8
0
6
CONTINUOUS
66
1
10
0.0
20
0.0
30
0.000000
0
VERTEX
8
0
10
450.000000
20
775.000000
30
0.000000
0
VERTEX
8
0
10
449.000000
20
776.000000
30
0.000000
0
VERTEX
8
0
10
444.000000
20
776.000000
30
0.000000
0
VERTEX
8
0
10
443.000000
20
773.000000
30
0.000000
0
VERTEX
8
0
10
449.000000
20
757.000000
30
0.000000
0
VERTEX
8
0
10
446.000000
20
715.000000
30
0.000000
0
VERTEX
8
0
10
447.000000
20
680.000000
30
0.000000
0
VERTEX
8
0
10
452.000000
20
647.000000
30
0.000000
0
VERTEX
8
0
10
458.000000
20
623.000000
30
0.000000
0
VERTEX
8
0
10
485.000000
20
550.000000
30
0.000000
0
VERTEX
8
0
10
492.000000
20
529.000000
30
0.000000
0
VERTEX
8
0
10
497.000000
20
521.000000
30
0.000000
0
VERTEX
8
0
10
502.000000
20
502.000000
30
0.000000
0
VERTEX
8
0
10
503.000000
20
483.000000
30
0.000000
0
VERTEX
8
0
10
515.000000
20
476.000000
30
0.000000
0
VERTEX
8
0
10
529.000000
20
471.000000
30
0.000000
0
VERTEX
8
0
10
545.000000
20
468.000000
30
0.000000
0
VERTEX
8
0
10
550.000000
20
471.000000
30
0.000000
0
VERTEX
8
0
10
551.000000
20
483.000000
30
0.000000
0
VERTEX
8
0
10
556.000000
20
487.000000
30
0.000000
0
VERTEX
8
0
10
557.000000
20
486.000000
30
0.000000
0
VERTEX
8
0
10
555.000000
20
467.000000
30
0.000000
0
VERTEX
8
0
10
559.000000
20
461.000000
30
0.000000
0
VERTEX
8
0
10
565.000000
20
461.000000
30
0.000000
0
VERTEX
8
0
10
568.000000
20
483.000000
30
0.000000
0
VERTEX
8
0
10
570.000000
20
491.000000
30
0.000000
0
VERTEX
8
0
10
575.000000
20
496.000000
30
0.000000
0
VERTEX
8
0
10
584.000000
20
494.000000
30
0.000000
0
VERTEX
8
0
10
586.000000
20
492.000000
30
0.000000
0
VERTEX
8
0
10
588.000000
20
493.000000
30
0.000000
0
VERTEX
8
0
10
584.000000
20
500.000000
30
0.000000
0
VERTEX
8
0
10
562.000000
20
518.000000
30
0.000000
0
VERTEX
8
0
10
550.000000
20
537.000000
30
0.000000
0
VERTEX
8
0
10
551.000000
20
593.000000
30
0.000000
0
VERTEX
8
0
10
546.000000
20
655.000000
30
0.000000
0
VERTEX
8
0
10
535.000000
20
720.000000
30
0.000000
0
VERTEX
8
0
10
524.000000
20
745.000000
30
0.000000
0
VERTEX
8
0
10
516.000000
20
755.000000
30
0.000000
0
VERTEX
8
0
10
513.000000
20
755.000000
30
0.000000
0
VERTEX
8
0
10
500.000000
20
763.000000
30
0.000000
0
VERTEX
8
0
10
468.000000
20
773.000000
30
0.000000
0
VERTEX
8
0
10
450.000000
20
775.000000
30
0.000000
0
SEQEND
0
POLYLINE
8
0
6
CONTINUOUS
66
1
10
0.0
20
0.0
30
0.000000
0
VERTEX
8
0
10
548.000000
20
743.000000
30
0.000000
0
VERTEX
8
0
10
547.000000
20
744.000000
30
0.000000
0
VERTEX
8
0
10
544.000000
20
744.000000
30
0.000000
0
VERTEX
8
0
10
543.000000
20
742.000000
30
0.000000
0
VERTEX
8
0
10
547.000000
20
733.000000
30
0.000000
0
VERTEX
8
0
10
556.000000
20
694.000000
30
0.000000
0
VERTEX
8
0
10
561.000000
20
653.000000
30
0.000000
0
VERTEX
8
0
10
560.000000
20
651.000000
30
0.000000
0
VERTEX
8
0
10
562.000000
20
627.000000
30
0.000000
0
VERTEX
8
0
10
561.000000
20
616.000000
30
0.000000
0
VERTEX
8
0
10
563.000000
20
569.000000
30
0.000000
0
VERTEX
8
0
10
561.000000
20
554.000000
30
0.000000
0
VERTEX
8
0
10
563.000000
20
542.000000
30
0.000000
0
VERTEX
8
0
10
567.000000
20
532.000000
30
0.000000
0
VERTEX
8
0
10
586.000000
20
512.000000
30
0.000000
0
VERTEX
8
0
10
601.000000
20
500.000000
30
0.000000
0
VERTEX
8
0
10
603.000000
20
490.000000
30
0.000000
0
VERTEX
8
0
10
603.000000
20
478.000000
30
0.000000
0
VERTEX
8
0
10
599.000000
20
467.000000
30
0.000000
0
VERTEX
8
0
10
584.000000
20
466.000000
30
0.000000
0
VERTEX
8
0
10
582.000000
20
470.000000
30
0.000000
0
VERTEX
8
0
10
578.000000
20
473.000000
30
0.000000
0
VERTEX
8
0
10
575.000000
20
464.000000
30
0.000000
0
VERTEX
8
0
10
573.000000
20
449.000000
30
0.000000
0
VERTEX
8
0
10
571.000000
20
444.000000
30
0.000000
0
VERTEX
8
0
10
568.000000
20
441.000000
30
0.000000
0
VERTEX
8
0
10
565.000000
20
441.000000
30
0.000000
0
VERTEX
8
0
10
547.000000
20
450.000000
30
0.000000
0
VERTEX
8
0
10
531.000000
20
452.000000
30
0.000000
0
VERTEX
8
0
10
507.000000
20
461.000000
30
0.000000
0
VERTEX
8
0
10
492.000000
20
472.000000
30
0.000000
0
VERTEX
8
0
10
490.000000
20
478.000000
30
0.000000
0
VERTEX
8
0
10
491.000000
20
501.000000
30
0.000000
0
VERTEX
8
0
10
487.000000
20
513.000000
30
0.000000
0
VERTEX
8
0
10
485.000000
20
515.000000
30
0.000000
0
VERTEX
8
0
10
475.000000
20
505.000000
30
0.000000
0
VERTEX
8
0
10
469.000000
20
495.000000
30
0.000000
0
VERTEX
8
0
10
462.000000
20
477.000000
30
0.000000
0
VERTEX
8
0
10
457.000000
20
458.000000
30
0.000000
0
VERTEX
8
0
10
455.000000
20
438.000000
30
0.000000
0
VERTEX
8
0
10
456.000000
20
408.000000
30
0.000000
0
VERTEX
8
0
10
459.000000
20
390.000000
30
0.000000
0
VERTEX
8
0
10
494.000000
20
326.000000
30
0.000000
0
VERTEX
8
0
10
501.000000
20
310.000000
30
0.000000
0
VERTEX
8
0
10
507.000000
20
291.000000
30
0.000000
0
VERTEX
8
0
10
511.000000
20
267.000000
30
0.000000
0
VERTEX
8
0
10
513.000000
20
224.000000
30
0.000000
0
VERTEX
8
0
10
517.000000
20
214.000000
30
0.000000
0
VERTEX
8
0
10
532.000000
20
199.000000
30
0.000000
0
VERTEX
8
0
10
537.000000
20
197.000000
30
0.000000
0
VERTEX
8
0
10
581.000000
20
198.000000
30
0.000000
0
VERTEX
8
0
10
592.000000
20
196.000000
30
0.000000
0
VERTEX
8
0
10
611.000000
20
189.000000
30
0.000000
0
VERTEX
8
0
10
613.000000
20
189.000000
30
0.000000
0
VERTEX
8
0
10
614.000000
20
191.000000
30
0.000000
0
VERTEX
8
0
10
609.000000
20
197.000000
30
0.000000
0
VERTEX
8
0
10
603.000000
20
199.000000
30
0.000000
0
VERTEX
8
0
10
598.000000
20
203.000000
30
0.000000
0
VERTEX
8
0
10
586.000000
20
207.000000
30
0.000000
0
VERTEX
8
0
10
586.000000
20
211.000000
30
0.000000
0
VERTEX
8
0
10
596.000000
20
213.000000
30
0.000000
0
VERTEX
8
0
10
621.000000
20
204.000000
30
0.000000
0
VERTEX
8
0
10
633.000000
20
194.000000
30
0.000000
0
VERTEX
8
0
10
638.000000
20
195.000000
30
0.000000
0
VERTEX
8
0
10
637.000000
20
199.000000
30
0.000000
0
VERTEX
8
0
10
629.000000
20
207.000000
30
0.000000
0
VERTEX
8
0
10
611.000000
20
217.000000
30
0.000000
0
VERTEX
8
0
10
610.000000
20
220.000000
30
0.000000
0
VERTEX
8
0
10
629.000000
20
221.000000
30
0.000000
0
VERTEX
8
0
10
641.000000
20
216.000000
30
0.000000
0
VERTEX
8
0
10
647.000000
20
211.000000
30
0.000000
0
VERTEX
8
0
10
648.000000
20
216.000000
30
0.000000
0
VERTEX
8
0
10
645.000000
20
223.000000
30
0.000000
0
VERTEX
8
0
10
635.000000
20
232.000000
30
0.000000
0
VERTEX
8
0
10
619.000000
20
241.000000
30
0.000000
0
VERTEX
8
0
10
596.000000
20
245.000000
30
0.000000
0
VERTEX
8
0
10
587.000000
20
250.000000
30
0.000000
0
VERTEX
8
0
10
584.000000
20
250.000000
30
0.000000
0
VERTEX
8
0
10
578.000000
20
240.000000
30
0.000000
0
VERTEX
8
0
10
579.000000
20
269.000000
30
0.000000
0
VERTEX
8
0
10
586.000000
20
305.000000
30
0.000000
0
VERTEX
8
0
10
592.000000
20
322.000000
30
0.000000
0
VERTEX
8
0
10
604.000000
20
348.000000
30
0.000000
0
VERTEX
8
0
10
624.000000
20
377.000000
30
0.000000
0
VERTEX
8
0
10
637.000000
20
392.000000
30
0.000000
0
VERTEX
8
0
10
659.000000
20
413.000000
30
0.000000
0
VERTEX
8
0
10
644.000000
20
426.000000
30
0.000000
0
VERTEX
8
0
10
641.000000
20
440.000000
30
0.000000
0
VERTEX
8
0
10
642.000000
20
469.000000
30
0.000000
0
VERTEX
8
0
10
649.000000
20
509.000000
30
0.000000
0
VERTEX
8
0
10
648.000000
20
548.000000
30
0.000000
0
VERTEX
8
0
10
643.000000
20
566.000000
30
0.000000
0
VERTEX
8
0
10
634.000000
20
587.000000
30
0.000000
0
VERTEX
8
0
10
628.000000
20
619.000000
30
0.000000
0
VERTEX
8
0
10
629.000000
20
668.000000
30
0.000000
0
VERTEX
8
0
10
625.000000
20
677.000000
30
0.000000
0
VERTEX
8
0
10
609.000000
20
698.000000
30
0.000000
0
VERTEX
8
0
10
586.000000
20
721.000000
30
0.000000
0
VERTEX
8
0
10
569.000000
20
733.000000
30
0.000000
0
VERTEX
8
0
10
548.000000
20
743.000000
30
0.000000
0
SEQEND
0
POLYLINE
8
0
6
CONTINUOUS
66
1
10
0.0
20
0.0
30
0.000000
0
VERTEX
8
0
10
615.000000
20
710.000000
30
0.000000
0
VERTEX
8
0
10
614.000000
20
711.000000
30
0.000000
0
VERTEX
8
0
10
611.000000
20
710.000000
30
0.000000
0
VERTEX
8
0
10
622.000000
20
699.000000
30
0.000000
0
VERTEX
8
0
10
632.000000
20
686.000000
30
0.000000
0
VERTEX
8
0
10
634.000000
20
691.000000
30
0.000000
0
VERTEX
8
0
10
633.000000
20
701.000000
30
0.000000
0
VERTEX
8
0
10
628.000000
20
705.000000
30
0.000000
0
VERTEX
8
0
10
615.000000
20
710.000000
30
0.000000
0
SEQEND
0
POLYLINE
8
0
6
CONTINUOUS
66
1
10
0.0
20
0.0
30
0.000000
0
VERTEX
8
0
10
644.000000
20
696.000000
30
0.000000
0
VERTEX
8
0
10
643.000000
20
697.000000
30
0.000000
0
VERTEX
8
0
10
643.000000
20
668.000000
30
0.000000
0
VERTEX
8
0
10
639.000000
20
647.000000
30
0.000000
0
VERTEX
8
0
10
639.000000
20
622.000000
30
0.000000
0
VERTEX
8
0
10
643.000000
20
602.000000
30
0.000000
0
VERTEX
8
0
10
654.000000
20
571.000000
30
0.000000
0
VERTEX
8
0
10
662.000000
20
531.000000
30
0.000000
0
VERTEX
8
0
10
662.000000
20
507.000000
30
0.000000
0
VERTEX
8
0
10
657.000000
20
470.000000
30
0.000000
0
VERTEX
8
0
10
657.000000
20
455.000000
30
0.000000
0
VERTEX
8
0
10
659.000000
20
444.000000
30
0.000000
0
VERTEX
8
0
10
664.000000
20
435.000000
30
0.000000
0
VERTEX
8
0
10
671.000000
20
429.000000
30
0.000000
0
VERTEX
8
0
10
678.000000
20
428.000000
30
0.000000
0
VERTEX
8
0
10
686.000000
20
435.000000
30
0.000000
0
VERTEX
8
0
10
705.000000
20
466.000000
30
0.000000
0
VERTEX
8
0
10
715.000000
20
493.000000
30
0.000000
0
VERTEX
8
0
10
722.000000
20
533.000000
30
0.000000
0
VERTEX
8
0
10
722.000000
20
568.000000
30
0.000000
0
VERTEX
8
0
10
720.000000
20
586.000000
30
0.000000
0
VERTEX
8
0
10
716.000000
20
602.000000
30
0.000000
0
VERTEX
8
0
10
700.000000
20
638.000000
30
0.000000
0
VERTEX
8
0
10
686.000000
20
661.000000
30
0.000000
0
VERTEX
8
0
10
670.000000
20
678.000000
30
0.000000
0
VERTEX
8
0
10
644.000000
20
696.000000
30
0.000000
0
SEQEND
0
POLYLINE
8
0
6
CONTINUOUS
66
1
10
0.0
20
0.0
30
0.000000
0
VERTEX
8
0
10
686.000000
20
411.000000
30
0.000000
0
VERTEX
8
0
10
685.000000
20
412.000000
30
0.000000
0
VERTEX
8
0
10
650.000000
20
377.000000
30
0.000000
0
VERTEX
8
0
10
623.000000
20
345.000000
30
0.000000
0
VERTEX
8
0
10
611.000000
20
327.000000
30
0.000000
0
VERTEX
8
0
10
595.000000
20
294.000000
30
0.000000
0
VERTEX
8
0
10
588.000000
20
270.000000
30
0.000000
0
VERTEX
8
0
10
588.000000
20
264.000000
30
0.000000
0
VERTEX
8
0
10
591.000000
20
261.000000
30
0.000000
0
VERTEX
8
0
10
605.000000
20
259.000000
30
0.000000
0
VERTEX
8
0
10
625.000000
20
253.000000
30
0.000000
0
VERTEX
8
0
10
643.000000
20
242.000000
30
0.000000
0
VERTEX
8
0
10
656.000000
20
229.000000
30
0.000000
0
VERTEX
8
0
10
667.000000
20
229.000000
30
0.000000
0
VERTEX
8
0
10
670.000000
20
232.000000
30
0.000000
0
VERTEX
8
0
10
666.000000
20
236.000000
30
0.000000
0
VERTEX
8
0
10
658.000000
20
238.000000
30
0.000000
0
VERTEX
8
0
10
657.000000
20
242.000000
30
0.000000
0
VERTEX
8
0
10
668.000000
20
242.000000
30
0.000000
0
VERTEX
8
0
10
681.000000
20
238.000000
30
0.000000
0
VERTEX
8
0
10
688.000000
20
240.000000
30
0.000000
0
VERTEX
8
0
10
690.000000
20
242.000000
30
0.000000
0
VERTEX
8
0
10
677.000000
20
250.000000
30
0.000000
0
VERTEX
8
0
10
667.000000
20
253.000000
30
0.000000
0
VERTEX
8
0
10
661.000000
20
253.000000
30
0.000000
0
VERTEX
8
0
10
663.000000
20
255.000000
30
0.000000
0
VERTEX
8
0
10
660.000000
20
257.000000
30
0.000000
0
VERTEX
8
0
10
671.000000
20
261.000000
30
0.000000
0
VERTEX
8
0
10
680.000000
20
262.000000
30
0.000000
0
VERTEX
8
0
10
689.000000
20
259.000000
30
0.000000
0
VERTEX
8
0
10
692.000000
20
260.000000
30
0.000000
0
VERTEX
8
0
10
686.000000
20
268.000000
30
0.000000
0
VERTEX
8
0
10
668.000000
20
278.000000
30
0.000000
0
VERTEX
8
0
10
648.000000
20
282.000000
30
0.000000
0
VERTEX
8
0
10
641.000000
20
274.000000
30
0.000000
0
VERTEX
8
0
10
638.000000
20
272.000000
30
0.000000
0
VERTEX
8
0
10
637.000000
20
295.000000
30
0.000000
0
VERTEX
8
0
10
641.000000
20
315.000000
30
0.000000
0
VERTEX
8
0
10
651.000000
20
343.000000
30
0.000000
0
VERTEX
8
0
10
668.000000
20
377.000000
30
0.000000
0
VERTEX
8
0
10
678.000000
20
392.000000
30
0.000000
0
VERTEX
8
0
10
687.000000
20
410.000000
30
0.000000
0
VERTEX
8
0
10
686.000000
20
411.000000
30
0.000000
0
SEQEND
0
ENDSEC
0
EOF
