  0
SECTION
  2
HEADER
  9
$ACADVER
  1
AC1027
  9
$ACADMAINTVER
 70
   125
  9
$DWGCODEPAGE
  3
ANSI_936
  9
$REQUIREDVERSIONS
160
                 0
  9
$INSBASE
 10
0.0
 20
0.0
 30
0.0
  9
$EXTMIN
 10
5147.305043481963
 20
9808.487340095039
 30
0.0
  9
$EXTMAX
 10
8310.79793603561
 20
14619.1652465471
 30
0.0
  9
$LIMMIN
 10
0.0
 20
0.0
  9
$LIMMAX
 10
420.0
 20
297.0
  9
$ORTHOMODE
 70
     0
  9
$REGENMODE
 70
     1
  9
$FILLMODE
 70
     1
  9
$QTEXTMODE
 70
     0
  9
$MIRRTEXT
 70
     0
  9
$LTSCALE
 40
1.0
  9
$ATTMODE
 70
     1
  9
$TEXTSIZE
 40
20.0
  9
$TRACEWID
 40
1.0
  9
$TEXTSTYLE
  7
Standard
  9
$CLAYER
  8
0
  9
$CELTYPE
  6
ByLayer
  9
$CECOLOR
 62
   256
  9
$CELTSCALE
 40
1.0
  9
$DISPSILH
 70
     0
  9
$DIMSCALE
 40
1.0
  9
$DIMASZ
 40
2.5
  9
$DIMEXO
 40
5.0
  9
$DIMDLI
 40
3.75
  9
$DIMRND
 40
0.0
  9
$DIMDLE
 40
0.0
  9
$DIMEXE
 40
1.25
  9
$DIMTP
 40
0.0
  9
$DIMTM
 40
0.0
  9
$DIMTXT
 40
20.0
  9
$DIMCEN
 40
2.5
  9
$DIMTSZ
 40
0.0
  9
$DIMTOL
 70
     0
  9
$DIMLIM
 70
     0
  9
$DIMTIH
 70
     0
  9
$DIMTOH
 70
     0
  9
$DIMSE1
 70
     0
  9
$DIMSE2
 70
     0
  9
$DIMTAD
 70
     1
  9
$DIMZIN
 70
     8
  9
$DIMBLK
  1

  9
$DIMASO
 70
     1
  9
$DIMSHO
 70
     1
  9
$DIMPOST
  1

  9
$DIMAPOST
  1

  9
$DIMALT
 70
     0
  9
$DIMALTD
 70
     3
  9
$DIMALTF
 40
0.03937007874016
  9
$DIMLFAC
 40
1.0
  9
$DIMTOFL
 70
     1
  9
$DIMTVP
 40
0.0
  9
$DIMTIX
 70
     0
  9
$DIMSOXD
 70
     0
  9
$DIMSAH
 70
     0
  9
$DIMBLK1
  1

  9
$DIMBLK2
  1

  9
$DIMSTYLE
  2
ISO-25
  9
$DIMCLRD
 70
     2
  9
$DIMCLRE
 70
     3
  9
$DIMCLRT
 70
     1
  9
$DIMTFAC
 40
1.0
  9
$DIMGAP
 40
0.625
  9
$DIMJUST
 70
     0
  9
$DIMSD1
 70
     0
  9
$DIMSD2
 70
     0
  9
$DIMTOLJ
 70
     0
  9
$DIMTZIN
 70
     8
  9
$DIMALTZ
 70
     0
  9
$DIMALTTZ
 70
     0
  9
$DIMUPT
 70
     0
  9
$DIMDEC
 70
     2
  9
$DIMTDEC
 70
     2
  9
$DIMALTU
 70
     2
  9
$DIMALTTD
 70
     3
  9
$DIMTXSTY
  7
Standard
  9
$DIMAUNIT
 70
     0
  9
$DIMADEC
 70
     2
  9
$DIMALTRND
 40
0.0
  9
$DIMAZIN
 70
     0
  9
$DIMDSEP
 70
    44
  9
$DIMATFIT
 70
     3
  9
$DIMFRAC
 70
     0
  9
$DIMLDRBLK
  1

  9
$DIMLUNIT
 70
     2
  9
$DIMLWD
 70
    -2
  9
$DIMLWE
 70
    -2
  9
$DIMTMOVE
 70
     0
  9
$DIMFXL
 40
1.0
  9
$DIMFXLON
 70
     0
  9
$DIMJOGANG
 40
0.7853981633974483
  9
$DIMTFILL
 70
     0
  9
$DIMTFILLCLR
 70
     0
  9
$DIMARCSYM
 70
     0
  9
$DIMLTYPE
  6

  9
$DIMLTEX1
  6

  9
$DIMLTEX2
  6

  9
$DIMTXTDIRECTION
 70
     0
  9
$LUNITS
 70
     2
  9
$LUPREC
 70
     4
  9
$SKETCHINC
 40
1.0
  9
$FILLETRAD
 40
0.0
  9
$AUNITS
 70
     0
  9
$AUPREC
 70
     0
  9
$MENU
  1
.
  9
$ELEVATION
 40
0.0
  9
$PELEVATION
 40
0.0
  9
$THICKNESS
 40
0.0
  9
$LIMCHECK
 70
     0
  9
$CHAMFERA
 40
0.0
  9
$CHAMFERB
 40
0.0
  9
$CHAMFERC
 40
0.0
  9
$CHAMFERD
 40
0.0
  9
$SKPOLY
 70
     0
  9
$TDCREATE
 40
2459511.331157407
  9
$TDUCREATE
 40
2459510.997824074
  9
$TDUPDATE
 40
2460113.732060186
  9
$TDUUPDATE
 40
2460113.398726852
  9
$TDINDWG
 40
2.3707986111
  9
$TDUSRTIMER
 40
2.3707986111
  9
$USRTIMER
 70
     1
  9
$ANGBASE
 50
0.0
  9
$ANGDIR
 70
     0
  9
$PDMODE
 70
     3
  9
$PDSIZE
 40
0.0
  9
$PLINEWID
 40
0.0
  9
$SPLFRAME
 70
     0
  9
$SPLINETYPE
 70
     6
  9
$SPLINESEGS
 70
     8
  9
$HANDSEED
  5
A9
  9
$SURFTAB1
 70
     6
  9
$SURFTAB2
 70
     6
  9
$SURFTYPE
 70
     6
  9
$SURFU
 70
     6
  9
$SURFV
 70
     6
  9
$UCSBASE
  2

  9
$UCSNAME
  2

  9
$UCSORG
 10
0.0
 20
0.0
 30
0.0
  9
$UCSXDIR
 10
1.0
 20
0.0
 30
0.0
  9
$UCSYDIR
 10
0.0
 20
1.0
 30
0.0
  9
$UCSORTHOREF
  2

  9
$UCSORTHOVIEW
 70
     0
  9
$UCSORGTOP
 10
0.0
 20
0.0
 30
0.0
  9
$UCSORGBOTTOM
 10
0.0
 20
0.0
 30
0.0
  9
$UCSORGLEFT
 10
0.0
 20
0.0
 30
0.0
  9
$UCSORGRIGHT
 10
0.0
 20
0.0
 30
0.0
  9
$UCSORGFRONT
 10
0.0
 20
0.0
 30
0.0
  9
$UCSORGBACK
 10
0.0
 20
0.0
 30
0.0
  9
$PUCSBASE
  2

  9
$PUCSNAME
  2

  9
$PUCSORG
 10
0.0
 20
0.0
 30
0.0
  9
$PUCSXDIR
 10
1.0
 20
0.0
 30
0.0
  9
$PUCSYDIR
 10
0.0
 20
1.0
 30
0.0
  9
$PUCSORTHOREF
  2

  9
$PUCSORTHOVIEW
 70
     0
  9
$PUCSORGTOP
 10
0.0
 20
0.0
 30
0.0
  9
$PUCSORGBOTTOM
 10
0.0
 20
0.0
 30
0.0
  9
$PUCSORGLEFT
 10
0.0
 20
0.0
 30
0.0
  9
$PUCSORGRIGHT
 10
0.0
 20
0.0
 30
0.0
  9
$PUCSORGFRONT
 10
0.0
 20
0.0
 30
0.0
  9
$PUCSORGBACK
 10
0.0
 20
0.0
 30
0.0
  9
$USERI1
 70
     0
  9
$USERI2
 70
     0
  9
$USERI3
 70
     0
  9
$USERI4
 70
     0
  9
$USERI5
 70
     0
  9
$USERR1
 40
0.0
  9
$USERR2
 40
0.0
  9
$USERR3
 40
0.0
  9
$USERR4
 40
0.0
  9
$USERR5
 40
2.5
  9
$WORLDVIEW
 70
     1
  9
$SHADEDGE
 70
     3
  9
$SHADEDIF
 70
    70
  9
$TILEMODE
 70
     1
  9
$MAXACTVP
 70
    64
  9
$PINSBASE
 10
0.0
 20
0.0
 30
0.0
  9
$PLIMCHECK
 70
     0
  9
$PEXTMIN
 10
0.0
 20
0.0
 30
0.0
  9
$PEXTMAX
 10
0.0
 20
0.0
 30
0.0
  9
$PLIMMIN
 10
0.0
 20
0.0
  9
$PLIMMAX
 10
12.0
 20
9.0
  9
$UNITMODE
 70
     0
  9
$VISRETAIN
 70
     1
  9
$PLINEGEN
 70
     0
  9
$PSLTSCALE
 70
     1
  9
$TREEDEPTH
 70
  3020
  9
$CMLSTYLE
  2
Z
  9
$CMLJUST
 70
     1
  9
$CMLSCALE
 40
0.2
  9
$PROXYGRAPHICS
 70
     1
  9
$MEASUREMENT
 70
     1
  9
$CELWEIGHT
370
    -1
  9
$ENDCAPS
280
     0
  9
$JOINSTYLE
280
     0
  9
$LWDISPLAY
290
     0
  9
$INSUNITS
 70
     4
  9
$HYPERLINKBASE
  1

  9
$STYLESHEET
  1

  9
$XEDIT
290
     1
  9
$CEPSNTYPE
380
     0
  9
$PSTYLEMODE
290
     1
  9
$FINGERPRINTGUID
  2
{1966A998-98DF-B444-8B6D-DD2CEA4EB0B4}
  9
$VERSIONGUID
  2
{E2CD8D34-51E7-AE45-8FBD-FA1F52122EAB}
  9
$EXTNAMES
290
     1
  9
$PSVPSCALE
 40
0.0
  9
$OLESTARTUP
290
     0
  9
$SORTENTS
280
   127
  9
$INDEXCTL
280
     0
  9
$HIDETEXT
280
     1
  9
$XCLIPFRAME
280
     2
  9
$HALOGAP
280
     0
  9
$OBSCOLOR
 70
   257
  9
$OBSLTYPE
280
     0
  9
$INTERSECTIONDISPLAY
280
     0
  9
$INTERSECTIONCOLOR
 70
   257
  9
$DIMASSOC
280
     2
  9
$PROJECTNAME
  1

  9
$CAMERADISPLAY
290
     0
  9
$LENSLENGTH
 40
50.0
  9
$CAMERAHEIGHT
 40
0.0
  9
$STEPSPERSEC
 40
2.0
  9
$STEPSIZE
 40
6.0
  9
$3DDWFPREC
 40
2.0
  9
$PSOLWIDTH
 40
5.0
  9
$PSOLHEIGHT
 40
80.0
  9
$LOFTANG1
 40
1.570796326794896
  9
$LOFTANG2
 40
1.570796326794896
  9
$LOFTMAG1
 40
0.0
  9
$LOFTMAG2
 40
0.0
  9
$LOFTPARAM
 70
     7
  9
$LOFTNORMALS
280
     1
  9
$LATITUDE
 40
37.795
  9
$LONGITUDE
 40
-122.394
  9
$NORTHDIRECTION
 40
0.0
  9
$TIMEZONE
 70
 -8000
  9
$LIGHTGLYPHDISPLAY
280
     1
  9
$TILEMODELIGHTSYNCH
280
     1
  9
$CMATERIAL
347
39
  9
$SOLIDHIST
280
     0
  9
$SHOWHIST
280
     1
  9
$DWFFRAME
280
     2
  9
$DGNFRAME
280
     0
  9
$REALWORLDSCALE
290
     1
  9
$INTERFERECOLOR
 62
     1
  9
$INTERFEREOBJVS
345
50
  9
$INTERFEREVPVS
346
51
  9
$CSHADOW
280
     0
  9
$SHADOWPLANELOCATION
 40
0.0
  0
ENDSEC
  0
SECTION
  2
CLASSES
  0
CLASS
  1
ACDBDICTIONARYWDFLT
  2
AcDbDictionaryWithDefault
  3
ObjectDBX Classes
 90
        0
 91
        1
280
     0
281
     0
  0
CLASS
  1
DICTIONARYVAR
  2
AcDbDictionaryVar
  3
ObjectDBX Classes
 90
        0
 91
        9
280
     0
281
     0
  0
CLASS
  1
TABLESTYLE
  2
AcDbTableStyle
  3
ObjectDBX Classes
 90
     4095
 91
        1
280
     0
281
     0
  0
CLASS
  1
MATERIAL
  2
AcDbMaterial
  3
ObjectDBX Classes
 90
     1153
 91
        3
280
     0
281
     0
  0
CLASS
  1
VISUALSTYLE
  2
AcDbVisualStyle
  3
ObjectDBX Classes
 90
     4095
 91
        3
280
     0
281
     0
  0
CLASS
  1
SCALE
  2
AcDbScale
  3
ObjectDBX Classes
 90
     1153
 91
       17
280
     0
281
     0
  0
CLASS
  1
MLEADERSTYLE
  2
AcDbMLeaderStyle
  3
ACDB_MLEADERSTYLE_CLASS
 90
     4095
 91
        0
280
     0
281
     0
  0
CLASS
  1
CELLSTYLEMAP
  2
AcDbCellStyleMap
  3
ObjectDBX Classes
 90
     1152
 91
        1
280
     0
281
     0
  0
CLASS
  1
EXACXREFPANELOBJECT
  2
ExAcXREFPanelObject
  3
EXAC_ESW
 90
     1025
 91
        0
280
     1
281
     0
  0
CLASS
  1
NPOCOLLECTION
  2
AcDbImpNonPersistentObjectsCollection
  3
ObjectDBX Classes
 90
     1153
 91
        0
280
     0
281
     0
  0
CLASS
  1
LAYER_INDEX
  2
AcDbLayerIndex
  3
ObjectDBX Classes
 90
        0
 91
        0
280
     0
281
     0
  0
CLASS
  1
SPATIAL_INDEX
  2
AcDbSpatialIndex
  3
ObjectDBX Classes
 90
        0
 91
        0
280
     0
281
     0
  0
CLASS
  1
IDBUFFER
  2
AcDbIdBuffer
  3
ObjectDBX Classes
 90
        0
 91
        0
280
     0
281
     0
  0
CLASS
  1
ACDBSECTIONVIEWSTYLE
  2
AcDbSectionViewStyle
  3
ObjectDBX Classes
 90
     1025
 91
        0
280
     0
281
     0
  0
CLASS
  1
ACDBDETAILVIEWSTYLE
  2
AcDbDetailViewStyle
  3
ObjectDBX Classes
 90
     1025
 91
        0
280
     0
281
     0
  0
CLASS
  1
SORTENTSTABLE
  2
AcDbSortentsTable
  3
ObjectDBX Classes
 90
        0
 91
        2
280
     0
281
     0
  0
CLASS
  1
DIMASSOC
  2
AcDbDimAssoc
  3
"AcDbDimAssoc|Product Desc:     AcDim ARX App For Dimension|Company:          Autodesk, Inc.|WEB Address:      www.autodesk.com"
 90
        0
 91
        0
280
     0
281
     0
  0
CLASS
  1
ARC_DIMENSION
  2
AcDbArcDimension
  3
ObjectDBX Classes
 90
     1025
 91
        0
280
     0
281
     1
  0
CLASS
  1
VLO-VL
  2
vlo_VL
  3
VL|AutoLISP based application
 90
      129
 91
        0
280
     0
281
     0
  0
ENDSEC
  0
SECTION
  2
TABLES
  0
TABLE
  2
VPORT
  5
29
330
0
100
AcDbSymbolTable
 70
     1
1001
ACAD
1000
DbSaveVer
1071
      205
  0
VPORT
  5
2A
330
29
100
AcDbSymbolTableRecord
100
AcDbViewportTableRecord
  2
*Active
 70
     0
 10
0.0
 20
0.0
 11
1.0
 21
1.0
 12
7868.763684532346
 22
9910.750828369458
 13
0.0
 23
0.0
 14
10.0
 24
10.0
 15
10.0
 25
10.0
 16
0.0
 26
0.0
 36
1.0
 17
0.0
 27
0.0
 37
0.0
 40
908.0040229665703
 41
2.269801980198019
 42
50.0
 43
0.0
 44
0.0
 50
0.0
 51
0.0
 71
     0
 72
  1000
 73
     1
 74
     3
 75
     0
 76
     0
 77
     0
 78
     0
281
     0
 65
     1
110
0.0
120
0.0
130
0.0
111
1.0
121
0.0
131
0.0
112
0.0
122
1.0
132
0.0
 79
     0
146
0.0
348
2B
 60
     3
 61
     5
292
     1
282
     1
141
0.0
142
0.0
 63
   250
421
  3355443
1001
ACAD_NAV_VCDISPLAY
1070
     3
  0
ENDTAB
  0
TABLE
  2
LTYPE
  5
24
330
0
100
AcDbSymbolTable
 70
     1
  0
LTYPE
  5
25
330
24
100
AcDbSymbolTableRecord
100
AcDbLinetypeTableRecord
  2
ByBlock
 70
     0
  3

 72
    65
 73
     0
 40
0.0
  0
LTYPE
  5
26
330
24
100
AcDbSymbolTableRecord
100
AcDbLinetypeTableRecord
  2
ByLayer
 70
     0
  3

 72
    65
 73
     0
 40
0.0
  0
LTYPE
  5
14
330
24
100
AcDbSymbolTableRecord
100
AcDbLinetypeTableRecord
  2
Continuous
 70
     0
  3
Solid line
 72
    65
 73
     0
 40
0.0
  0
ENDTAB
  0
TABLE
  2
LAYER
  5
1E
102
{ACAD_XDICTIONARY
360
1F
102
}
330
0
100
AcDbSymbolTable
 70
     1
  0
LAYER
  5
6
102
{ACAD_XDICTIONARY
360
7
102
}
330
1E
100
AcDbSymbolTableRecord
100
AcDbLayerTableRecord
  2
0
 70
     0
 62
     7
  6
Continuous
370
    -3
390
8
347
B
348
0
  0
ENDTAB
  0
TABLE
  2
STYLE
  5
21
330
0
100
AcDbSymbolTable
 70
     1
  0
STYLE
  5
22
330
21
100
AcDbSymbolTableRecord
100
AcDbTextStyleTableRecord
  2
Standard
 70
     0
 40
0.0
 41
1.0
 50
0.0
 71
     0
 42
20.0
  3

  4

1001
ACAD
1000
LiSu
1071
    34353
  0
ENDTAB
  0
TABLE
  2
VIEW
  5
27
330
0
100
AcDbSymbolTable
 70
     0
  0
ENDTAB
  0
TABLE
  2
UCS
  5
28
330
0
100
AcDbSymbolTable
 70
     0
  0
ENDTAB
  0
TABLE
  2
APPID
  5
2E
330
0
100
AcDbSymbolTable
 70
     7
  0
APPID
  5
13
330
2E
100
AcDbSymbolTableRecord
100
AcDbRegAppTableRecord
  2
ACAD
 70
     0
  0
APPID
  5
19
330
2E
100
AcDbSymbolTableRecord
100
AcDbRegAppTableRecord
  2
ACAD_PSEXT
 70
     0
  0
APPID
  5
34
330
2E
100
AcDbSymbolTableRecord
100
AcDbRegAppTableRecord
  2
AcadAnnotative
 70
     0
  0
APPID
  5
31
330
2E
100
AcDbSymbolTableRecord
100
AcDbRegAppTableRecord
  2
ACAD_DSTYLE_DIMJAG
 70
     0
  0
APPID
  5
32
330
2E
100
AcDbSymbolTableRecord
100
AcDbRegAppTableRecord
  2
ACAD_DSTYLE_DIMTALN
 70
     0
  0
APPID
  5
2D
330
2E
100
AcDbSymbolTableRecord
100
AcDbRegAppTableRecord
  2
ACAD_NAV_VCDISPLAY
 70
     0
  0
APPID
  5
69
330
2E
100
AcDbSymbolTableRecord
100
AcDbRegAppTableRecord
  2
FS_CYPCUT
 70
     0
  0
ENDTAB
  0
TABLE
  2
DIMSTYLE
  5
2F
330
0
100
AcDbSymbolTable
 70
     2
100
AcDbDimStyleTable
 71
     2
340
30
340
33
  0
DIMSTYLE
105
33
330
2F
100
AcDbSymbolTableRecord
100
AcDbDimStyleTableRecord
  2
Annotative
 70
     0
 40
0.0
 41
2.5
 42
0.625
 43
3.75
 44
1.25
 73
     0
 74
     0
 77
     1
 78
     8
140
2.5
141
2.5
143
0.03937007874016
147
0.625
171
     3
172
     1
271
     2
272
     2
274
     3
278
    44
283
     0
284
     8
340
22
1001
AcadAnnotative
1000
AnnotativeData
1002
{
1070
     1
1070
     1
1002
}
1001
ACAD_DSTYLE_DIMJAG
1070
   388
1040
1.5
1001
ACAD_DSTYLE_DIMTALN
1070
   392
1070
     0
  0
DIMSTYLE
105
30
330
2F
100
AcDbSymbolTableRecord
100
AcDbDimStyleTableRecord
  2
ISO-25
 70
     0
 41
2.5
 42
5.0
 43
3.75
 44
1.25
 73
     0
 74
     0
 77
     1
 78
     8
140
20.0
141
2.5
143
0.03937007874016
147
0.625
171
     3
172
     1
176
     2
177
     3
178
     1
179
     2
271
     2
272
     2
274
     3
278
    44
283
     0
284
     8
340
22
1001
ACAD_DSTYLE_DIMJAG
1070
   388
1040
1.5
1001
ACAD_DSTYLE_DIMTALN
1070
   392
1070
     0
  0
ENDTAB
  0
TABLE
  2
BLOCK_RECORD
  5
1
330
0
100
AcDbSymbolTable
 70
     0
  0
BLOCK_RECORD
  5
2
102
{ACAD_XDICTIONARY
360
3
102
}
330
1
100
AcDbSymbolTableRecord
100
AcDbBlockTableRecord
  2
*Model_Space
340
16
 70
     0
280
     1
281
     0
  0
BLOCK_RECORD
  5
1A
330
1
100
AcDbSymbolTableRecord
100
AcDbBlockTableRecord
  2
*Paper_Space
340
1D
 70
     0
280
     1
281
     0
  0
ENDTAB
  0
ENDSEC
  0
SECTION
  2
BLOCKS
  0
BLOCK
  5
5
330
2
100
AcDbEntity
  8
0
100
AcDbBlockBegin
  2
*Model_Space
 70
     0
 10
0.0
 20
0.0
 30
0.0
  3
*Model_Space
  1

  0
ENDBLK
  5
15
330
2
100
AcDbEntity
  8
0
100
AcDbBlockEnd
  0
BLOCK
  5
1B
330
1A
100
AcDbEntity
 67
     1
  8
0
100
AcDbBlockBegin
  2
*Paper_Space
 70
     0
 10
0.0
 20
0.0
 30
0.0
  3
*Paper_Space
  1

  0
ENDBLK
  5
1C
330
1A
100
AcDbEntity
 67
     1
  8
0
100
AcDbBlockEnd
  0
ENDSEC
  0
SECTION
  2
ENTITIES
  0
LWPOLYLINE
  5
64
330
2
100
AcDbEntity
  8
0
100
AcDbPolyline
 90
        4
 70
     1
 43
0.0
 10
7884.891784150166
 20
9937.119221104858
 42
-0.029591964025548
 10
7881.288940897346
 20
9937.119222204961
 42
0.9999999999999843
 10
7880.875013735007
 20
9930.1314711859
 42
0.0295919640255638
 10
7885.305707045216
 20
9930.13146983303
 42
1.000000000000502
  0
LWPOLYLINE
  5
65
330
2
100
AcDbEntity
  8
0
 62
    32
420
 13461800
100
AcDbPolyline
 90
        4
 70
     1
 43
0.0
 10
7885.673511142248
 20
10010.90494305524
 42
0.0295919640255612
 10
7880.534745396897
 20
10010.90657280507
 42
-0.9999999999999998
 10
7880.123036540958
 20
10017.89445487462
 42
-0.0295919640255548
 10
7886.089652302057
 20
10017.89256257372
 42
-1.000000000000015
  0
MTEXT
  5
66
330
2
100
AcDbEntity
  8
0
 62
     3
100
AcDbMText
 10
7881.276355787615
 20
9957.41353501932
 30
0.0
 40
5.0
 41
8.324903640504995
 46
0.0
 71
     1
 72
     5
  1
4 
 73
     1
 44
1.0
  0
CIRCLE
  5
67
330
2
100
AcDbEntity
  8
0
 62
     3
100
AcDbCircle
 10
7883.090371809519
 20
9967.530250611288
 30
0.0
 40
2.475
  0
LWPOLYLINE
  5
68
330
2
100
AcDbEntity
  8
0
 62
     3
100
AcDbPolyline
 90
        8
 70
     1
 43
0.0
 10
7889.806819785279
 20
9927.53025061129
 42
0.4073375628129483
 10
7892.805989115547
 20
9930.4596579182
 10
7899.725989117
 20
10224.4596579182
 42
0.4211231568364461
 10
7896.726819786731
 20
10227.53025061128
 10
7869.453923832269
 20
10227.53025061128
 42
0.4211231568364461
 10
7866.454754501977
 20
10224.4596579182
 10
7873.374754503467
 20
9930.4596579182
 42
0.4073375628129483
 10
7876.373923833748
 20
9927.53025061129
1001
FS_CYPCUT
1000
Channel
1070
     1
1000
LeadIn
1002
{
1070
     0
1040
0.0
1040
0.0
1040
0.0
1040
0.0
1070
     0
1040
0.0
1070
     0
1002
}
1000
LeadOut
1002
{
1070
     0
1040
0.0
1040
0.0
1040
0.0
1070
     0
1002
}
1000
IsFill
1070
     1
1000
PathStart
1040
0.0
1000
ToolCompensation
1002
{
1070
     0
1040
0.0
1070
     0
1002
}
  0
LWPOLYLINE
  5
6A
330
2
100
AcDbEntity
  8
0
 62
    32
420
 13461800
100
AcDbPolyline
 90
        4
 70
     1
 43
0.0
 10
7831.850846743392
 20
10010.32253444999
 42
0.0295919640255612
 10
7826.712080998048
 20
10010.32416419982
 42
-0.9999999999999998
 10
7826.300372142108
 20
10017.31204626937
 42
-0.0295919640255548
 10
7832.266987903206
 20
10017.31015396847
 42
-1.000000000000015
  0
LWPOLYLINE
  5
6B
330
2
100
AcDbEntity
  8
0
 62
   152
420
  2586299
100
AcDbPolyline
 90
        4
 70
     1
 43
0.0
 10
7830.657312864129
 20
9943.488963160621
 42
-0.0295919640255623
 10
7827.878101957174
 20
9943.488963160621
 42
0.9999999999995118
 10
7827.464176928486
 20
9936.501212015185
 42
0.029591964025576
 10
7831.071237892825
 20
9936.501212015185
 42
1.000000000000015
  0
MTEXT
  5
6C
330
2
100
AcDbEntity
  8
0
 62
     6
100
AcDbMText
 10
7827.671990902842
 20
9956.87073988188
 30
0.0
 40
5.0
 41
8.686857228254666
 46
0.0
 71
     1
 72
     5
  1
3
 73
     1
 44
1.0
  0
CIRCLE
  5
6D
330
2
100
AcDbEntity
  8
0
 62
     6
100
AcDbCircle
 10
7829.267707410656
 20
9966.947842006041
 30
0.0
 40
2.475
  0
LWPOLYLINE
  5
6E
330
2
100
AcDbEntity
  8
0
 62
     6
100
AcDbPolyline
 90
        8
 70
     1
 43
0.0
 10
7835.98415538641
 20
9926.947842006041
 42
0.4073375628129483
 10
7838.983324716686
 20
9929.877249312951
 10
7845.903324718136
 20
10223.87724931295
 42
0.4211231568364461
 10
7842.904155387869
 20
10226.94784200603
 10
7815.631259433398
 20
10226.94784200603
 42
0.4211231568364461
 10
7812.632090103118
 20
10223.87724931295
 10
7819.552090104598
 20
9929.877249312951
 42
0.4073375628129483
 10
7822.55125943489
 20
9926.947842006041
1001
FS_CYPCUT
1000
Channel
1070
     1
1000
LeadIn
1002
{
1070
     0
1040
0.0
1040
0.0
1040
0.0
1040
0.0
1070
     0
1040
0.0
1070
     0
1002
}
1000
LeadOut
1002
{
1070
     0
1040
0.0
1040
0.0
1040
0.0
1070
     0
1002
}
1000
IsFill
1070
     1
1000
PathStart
1040
0.0
1000
ToolCompensation
1002
{
1070
     0
1040
0.0
1070
     0
1002
}
  0
LWPOLYLINE
  5
6F
330
2
100
AcDbEntity
  8
0
 62
   152
420
  2586299
100
AcDbPolyline
 90
        4
 70
     1
 43
0.0
 10
7770.547135678912
 20
9943.33386794268
 42
-0.0295919640255623
 10
7767.767924771961
 20
9943.33386794268
 42
0.9999999999995118
 10
7767.353999743271
 20
9936.346116797242
 42
0.029591964025576
 10
7770.96106070761
 20
9936.346116797242
 42
1.000000000000015
  0
LWPOLYLINE
  5
70
330
2
100
AcDbEntity
  8
0
 62
     1
100
AcDbPolyline
 90
        4
 70
     1
 43
0.0
 10
7771.393353402429
 20
10003.22420427638
 42
1.001017466866745
 10
7771.645162847192
 20
10010.22155846811
 42
0.0286168943722588
 10
7766.669897603691
 20
10010.22155846811
 42
1.023469048267509
 10
7767.076716440429
 20
10003.23338638171
 42
-0.0295919640255469
  0
MTEXT
  5
71
330
2
100
AcDbEntity
  8
0
 62
     2
100
AcDbMText
 10
7767.488466546159
 20
9956.529082295389
 30
0.0
 40
5.0
 41
10.01402038333617
 46
0.0
 71
     1
 72
     5
  1
2 
 73
     1
 44
1.0
  0
CIRCLE
  5
72
330
2
100
AcDbEntity
  8
0
 62
     2
100
AcDbCircle
 10
7769.157530225441
 20
9966.792746788101
 30
0.0
 40
2.475
  0
LWPOLYLINE
  5
73
330
2
100
AcDbEntity
  8
0
 62
     2
100
AcDbPolyline
 90
        8
 70
     1
 43
0.0
 10
7775.873978201186
 20
9926.792746788102
 42
0.4073375628129483
 10
7778.873147531477
 20
9929.72215409501
 10
7785.793147532929
 20
10223.72215409501
 42
0.4211231568364461
 10
7782.793978202652
 20
10226.7927467881
 10
7755.521082248191
 20
10226.7927467881
 42
0.4211231568364461
 10
7752.521912917899
 20
10223.72215409501
 10
7759.441912919391
 20
9929.72215409501
 42
0.4073375628129483
 10
7762.44108224967
 20
9926.792746788102
1001
FS_CYPCUT
1000
Channel
1070
     1
1000
LeadIn
1002
{
1070
     0
1040
0.0
1040
0.0
1040
0.0
1040
0.0
1070
     0
1040
0.0
1070
     0
1002
}
1000
LeadOut
1002
{
1070
     0
1040
0.0
1040
0.0
1040
0.0
1070
     0
1002
}
1000
IsFill
1070
     1
1000
PathStart
1040
0.0
1000
ToolCompensation
1002
{
1070
     0
1040
0.0
1070
     0
1002
}
  0
LWPOLYLINE
  5
74
330
2
100
AcDbEntity
  8
0
100
AcDbPolyline
 90
        4
 70
     1
 43
0.0
 10
7715.006216097961
 20
9936.657227897192
 42
-0.029591964025548
 10
7711.403372845136
 20
9936.657228997292
 42
0.9999999999999843
 10
7710.989445682786
 20
9929.669477978233
 42
0.0295919640255638
 10
7715.420138993009
 20
9929.669476625363
 42
1.000000000000502
  0
LWPOLYLINE
  5
75
330
2
100
AcDbEntity
  8
0
 62
     1
100
AcDbPolyline
 90
        4
 70
     1
 43
0.0
 10
7715.440626934287
 20
10003.4997148919
 42
1.001017466866745
 10
7715.692436379057
 20
10010.49706908363
 42
0.0286168943722588
 10
7710.717171135546
 20
10010.49706908363
 42
1.023469048267509
 10
7711.123989972297
 20
10003.50889699722
 42
-0.0295919640255469
  0
MTEXT
  5
76
330
2
100
AcDbEntity
  8
0
 62
     4
100
AcDbMText
 10
7711.578214369213
 20
9957.075056407134
 30
0.0
 40
5.0
 41
6.756452532459657
 46
0.0
 71
     1
 72
     5
  1
1
 11
1.0
 21
-0.0000000000088646
 31
0.0
 73
     1
 44
1.0
  0
CIRCLE
  5
77
330
2
100
AcDbEntity
  8
0
 62
     4
100
AcDbCircle
 10
7713.204803757297
 20
9967.068257403624
 30
0.0
 40
2.475
  0
LWPOLYLINE
  5
78
330
2
100
AcDbEntity
  8
0
 62
     4
100
AcDbPolyline
 90
        8
 70
     1
 43
0.0
 10
7719.921251732697
 20
9927.068257403625
 42
0.4073375628129483
 10
7722.920421062983
 20
9929.997664710533
 10
7729.840421064439
 20
10223.99766471052
 42
0.4211231568369814
 10
7726.841251734159
 20
10227.06825740362
 10
7699.568355779695
 20
10227.06825740362
 42
0.4211231568369814
 10
7696.569186449419
 20
10223.99766471052
 10
7703.489186450898
 20
9929.997664710533
 42
0.4073375628129483
 10
7706.488355781171
 20
9927.068257403625
1001
FS_CYPCUT
1000
Channel
1070
     1
1000
LeadIn
1002
{
1070
     0
1040
0.0
1040
0.0
1040
0.0
1040
0.0
1070
     0
1040
0.0
1070
     0
1002
}
1000
LeadOut
1002
{
1070
     0
1040
0.0
1040
0.0
1040
0.0
1070
     0
1002
}
1000
IsFill
1070
     1
1000
PathStart
1040
0.0
1000
ToolCompensation
1002
{
1070
     0
1040
0.0
1070
     0
1002
}
  0
LWPOLYLINE
  5
79
330
2
100
AcDbEntity
  8
0
100
AcDbPolyline
 90
        8
 70
     1
 43
0.0
 10
7626.664421905569
 20
10222.14044441054
 10
7599.391525951087
 20
10222.14044441054
 42
0.4211231568363714
 10
7596.392356620821
 20
10219.06985171745
 10
7603.312356622295
 20
9925.069851717445
 42
0.4073375628129582
 10
7606.31152595258
 20
9922.140444410539
 10
7619.744421904099
 20
9922.140444410539
 42
0.4073375628129667
 10
7622.743591234391
 20
9925.069851717445
 10
7629.663591235837
 20
10219.06985171745
 42
0.4211231568367305
  0
CIRCLE
  5
7A
330
2
100
AcDbEntity
  8
0
100
AcDbCircle
 10
7613.027973928339
 20
9962.14044441054
 30
0.0
 40
2.5
  0
LWPOLYLINE
  5
7B
330
2
100
AcDbEntity
  8
0
 62
     0
370
     0
100
AcDbPolyline
 90
       37
 70
     1
 43
0.0
 10
7615.213263286484
 20
10102.51578753755
 10
7614.612038327736
 20
10102.61970296251
 10
7613.862362761889
 20
10102.67908320535
 10
7613.46896865308
 20
10102.62712549287
 10
7612.704448026523
 20
10102.53805512861
 10
7611.672716307191
 20
10102.42671717329
 10
7611.680138837546
 20
10102.98340694991
 10
7611.709828958966
 20
10103.77761769788
 10
7611.761786671452
 20
10104.61636362798
 10
7612.073532946358
 20
10104.66089881011
 10
7613.068152013915
 20
10104.83161700828
 10
7613.802982519051
 20
10105.0097577368
 10
7614.28544699212
 20
10105.21016605638
 10
7614.37451735638
 20
10105.24727870815
 10
7614.626883388446
 20
10105.71489812051
 10
7614.508122902768
 20
10105.766855833
 10
7613.69906709408
 20
10105.88561631867
 10
7613.461546122725
 20
10105.87819378832
 10
7612.7415606783
 20
10105.82623607584
 10
7611.761786671452
 20
10105.71489812051
 10
7611.776631732161
 20
10106.24189777571
 10
7611.828589444645
 20
10107.02868599333
 10
7611.932504869615
 20
10107.90454457521
 10
7612.014152703517
 20
10107.91938963592
 10
7612.919701406816
 20
10108.06041771266
 10
7613.706489624438
 20
10108.17175566799
 10
7614.37451735638
 20
10108.23855844118
 10
7615.13161545258
 20
10108.28309362331
 10
7615.88871354878
 20
10108.23855844118
 10
7616.126234520137
 20
10108.09753036444
 10
7616.296952718299
 20
10107.5111504664
 10
7616.222727414752
 20
10106.47199621671
 10
7616.207882354041
 20
10106.39777091316
 10
7616.059431746944
 20
10105.68520799909
 10
7615.88871354878
 20
10104.93553243325
 10
7615.688305229197
 20
10104.16358927634
 10
7615.465629318551
 20
10103.35453346765
  0
LWPOLYLINE
  5
7C
330
2
100
AcDbEntity
  8
0
 62
     0
370
     0
100
AcDbPolyline
 90
       28
 70
     1
 43
0.0
 10
7610.663252178923
 20
10102.25599897512
 10
7610.255013009404
 20
10102.19661873228
 10
7609.349464306105
 20
10102.0630131859
 10
7608.58494367955
 20
10101.94425270022
 10
7607.968873660091
 20
10101.84033727525
 10
7607.894648356543
 20
10102.30053415725
 10
7607.790732931573
 20
10102.98340694991
 10
7607.671972445896
 20
10103.71823745504
 10
7607.545789429862
 20
10104.50502567266
 10
7607.412183883472
 20
10105.33634907241
 10
7607.278578337083
 20
10106.21963018465
 10
7607.130127729987
 20
10107.14744647901
 10
7607.605169672702
 20
10107.25136190398
 10
7608.40680295103
 20
10107.40723504143
 10
7609.193591168652
 20
10107.54084058782
 10
7609.972956855917
 20
10107.65217854314
 10
7610.752322543182
 20
10107.73382637705
 10
7610.752322543182
 20
10105.54417992235
 10
7610.047182159466
 20
10105.41057437596
 10
7609.245548881135
 20
10105.22501111709
 10
7608.644323922388
 20
10105.03944785821
 10
7608.317732586773
 20
10104.89841978147
 10
7608.562676088485
 20
10104.61636362798
 10
7608.978337788359
 20
10104.51244820302
 10
7609.735435884559
 20
10104.46791302089
 10
7610.752322543182
 20
10104.53471579408
 10
7610.744900012829
 20
10104.05225132101
 10
7610.715209891409
 20
10103.27288563375
  0
LWPOLYLINE
  5
7D
330
2
100
AcDbEntity
  8
0
 62
     0
370
     0
100
AcDbPolyline
 90
      118
 70
     1
 43
0.0
 10
7619.466373179847
 20
10096.13983396268
 10
7620.097288260014
 20
10096.36250987332
 10
7620.846963825862
 20
10096.71136880001
 10
7621.284893116801
 20
10097.1567206213
 10
7621.195822752541
 20
10097.62434003366
 10
7620.876653947282
 20
10098.06969185495
 10
7620.639132975924
 20
10098.78967729938
 10
7620.520372490244
 20
10099.73233865445
 10
7620.438724656342
 20
10100.28160590072
 10
7620.312541640307
 20
10100.4820142203
 10
7620.178936093918
 20
10099.81398648836
 10
7619.971105243982
 20
10098.91586031541
 10
7619.659358969075
 20
10098.2107199317
 10
7619.258542329909
 20
10097.70598786756
 10
7618.902260872875
 20
10097.48331195692
 10
7618.278768323062
 20
10097.26063604627
 10
7617.440022392957
 20
10097.11218543917
 10
7616.393445612914
 20
10097.03796013562
 10
7615.821910775586
 20
10097.0082700142
 10
7614.960897254417
 20
10097.03053760527
 10
7614.181531567151
 20
10097.14187556059
 10
7613.476391183437
 20
10097.34228388017
 10
7612.852898633622
 20
10097.62434003366
 10
7612.504039706941
 20
10097.86928353537
 10
7612.162603310615
 20
10098.30721282631
 10
7611.902814748195
 20
10098.90843778506
 10
7611.739519080386
 20
10099.67295841161
 10
7611.665293776836
 20
10100.59335217562
 10
7611.672716307191
 20
10101.66961907708
 10
7611.836011974999
 20
10101.6844641378
 10
7612.585687540846
 20
10101.75868944134
 10
7613.365053228112
 20
10101.82549221454
 10
7614.188954097506
 20
10101.87744992702
 10
7615.042545088321
 20
10101.92198510915
 10
7615.183573165065
 20
10101.43952063608
 10
7615.458206788196
 20
10101.29849255934
 10
7615.82933330594
 20
10101.65477401638
 10
7616.304375248656
 20
10102.51578753755
 10
7616.48993850753
 20
10102.92402670706
 10
7616.853642494921
 20
10103.77761769788
 10
7617.172811300179
 20
10104.54956085479
 10
7617.440022392957
 20
10105.21758858673
 10
7617.655275773249
 20
10105.79654595441
 10
7617.788881319637
 20
10106.18251753287
 10
7618.145162776674
 20
10106.91734803801
 10
7618.583092067614
 20
10107.48146034498
 10
7618.8651482211
 20
10107.84516433237
 10
7618.664739901517
 20
10108.40927663934
 10
7618.152585307028
 20
10108.73586797496
 10
7617.402909741182
 20
10109.16637473554
 10
7617.388064680473
 20
10109.18121979625
 10
7616.638389114626
 20
10109.42616329797
 10
7615.88871354878
 20
10109.33709293371
 10
7615.866445957715
 20
10109.32967040335
 10
7615.435939197131
 20
10109.19606485697
 10
7614.827291708029
 20
10109.04761424987
 10
7614.040503490406
 20
10108.89916364277
 10
7613.07557454427
 20
10108.74329050531
 10
7611.932504869615
 20
10108.57999483751
 10
7612.014152703517
 20
10109.72306451216
 10
7612.118068128485
 20
10110.65088080653
 10
7612.22940608381
 20
10111.30406347776
 10
7612.348166569489
 20
10111.69745758657
 10
7612.392701751616
 20
10111.85333072402
 10
7612.014152703517
 20
10112.45455568277
 10
7611.524265700094
 20
10112.647541472
 10
7610.752322543182
 20
10112.877639913
 10
7610.410886146858
 20
10112.877639913
 10
7610.329238312953
 20
10112.45455568277
 10
7610.344083373663
 20
10112.417443031
 10
7610.544491693246
 20
10111.73457023834
 10
7610.663252178923
 20
10110.85128912611
 10
7610.670674709279
 20
10110.81417647434
 10
7610.715209891409
 20
10110.10161356026
 10
7610.737477482473
 20
10109.29998028193
 10
7610.752322543182
 20
10108.40927663934
 10
7609.958111795207
 20
10108.29793868402
 10
7609.097098274038
 20
10108.1866007287
 10
7608.302887526062
 20
10108.09753036444
 10
7607.560634490571
 20
10108.0381501216
 10
7606.87776169792
 20
10107.98619240911
 10
7606.33591698201
 20
10108.10495289479
 10
7605.615931537585
 20
10108.23855844118
 10
7605.348720444808
 20
10108.17175566799
 10
7605.526861173325
 20
10107.57053070924
 10
7605.786649735748
 20
10107.02868599333
 10
7606.046438298172
 20
10106.27901042749
 10
7606.283959269527
 20
10105.37346172418
 10
7606.387874694495
 20
10104.91326484218
 10
7606.566015423014
 20
10104.09678650314
 10
7606.729311090821
 20
10103.32484334623
 10
7606.87776169792
 20
10102.59743537145
 10
7606.929719410404
 20
10102.24857644477
 10
7607.122705199633
 20
10101.40240798431
 10
7607.382493762052
 20
10100.82345061663
 10
7607.620014733409
 20
10100.60077470598
 10
7608.057944024349
 20
10101.16488701295
 10
7608.288042465351
 20
10101.20942219508
 10
7609.067408152617
 20
10101.35045027182
 10
7609.861618900594
 20
10101.47663328786
 10
7610.663252178923
 20
10101.58797124318
 10
7610.648407118214
 20
10100.89025338982
 10
7610.678097239634
 20
10099.88821179191
 10
7610.767167603893
 20
10099.01977574038
 10
7610.937885802056
 20
10098.27010017454
 10
7611.167984243057
 20
10097.64660762473
 10
7611.47230798761
 20
10097.14929809095
 10
7611.843434505354
 20
10096.78559410356
 10
7611.969617521388
 20
10096.68167867858
 10
7612.518884767652
 20
10096.32539722155
 10
7613.172067438883
 20
10096.04334106806
 10
7613.921743004731
 20
10095.84293274848
 10
7614.775333995544
 20
10095.7241722628
 10
7615.717995350617
 20
10095.68705961103
 10
7616.289530187946
 20
10095.69448214138
 10
7617.180233830534
 20
10095.73901732351
 10
7618.00413469993
 20
10095.83551021813
 10
7618.768655326485
 20
10095.96911576452
  0
LWPOLYLINE
  5
7E
330
2
100
AcDbEntity
  8
0
 62
     0
370
     0
100
AcDbPolyline
 90
      104
 70
     1
 43
0.0
 10
7608.918076654394
 20
10124.8947165576
 10
7608.940344245458
 20
10125.70377236629
 10
7608.962611836521
 20
10126.6241661303
 10
7608.977456897232
 20
10127.64847531927
 10
7608.984879427587
 20
10128.79154499393
 10
7608.992301957941
 20
10130.03853009355
 10
7609.274358111427
 20
10129.71193875794
 10
7609.890428130886
 20
10129.17751657238
 10
7610.506498150344
 20
10128.85834776712
 10
7610.93700491093
 20
10128.7470098118
 10
7611.34524408045
 20
10129.19236163309
 10
7611.352666610804
 20
10129.63029092403
 10
7610.840512016314
 20
10130.20924829171
 10
7610.588145984248
 20
10130.30574118633
 10
7609.845892948759
 20
10130.45419179343
 10
7608.992301957941
 20
10130.46161432378
 10
7609.014569549008
 20
10131.10737446466
 10
7609.051682200782
 20
10132.05745835009
 10
7609.066527261491
 20
10132.79971138558
 10
7609.073949791846
 20
10133.32671104078
 10
7609.214977868589
 20
10133.36382369255
 10
7610.217019466502
 20
10133.67556996746
 10
7610.929582380574
 20
10133.97247118166
 10
7611.34524408045
 20
10134.25452733514
 10
7611.478849626836
 20
10134.41040047259
 10
7611.263596246543
 20
10134.92255506708
 10
7611.011230214477
 20
10135.02647049205
 10
7610.254132118278
 20
10135.01162543134
 10
7609.868160539821
 20
10134.87801988495
 10
7609.073949791846
 20
10134.58854120111
 10
7609.103639913266
 20
10135.44213219193
 10
7609.15559762575
 20
10136.50355403268
 10
7609.229822929299
 20
10137.33487743243
 10
7609.311470763202
 20
10137.92867986082
 10
7609.407963657817
 20
10138.29980637857
 10
7609.497034022076
 20
10138.59670759277
 10
7609.244667990009
 20
10139.22020014258
 10
7608.799316168715
 20
10139.4131859318
 10
7607.982837829672
 20
10139.64328437281
 10
7607.611711311929
 20
10139.67297449423
 10
7607.559753599445
 20
10139.22020014258
 10
7607.641401433349
 20
10139.05690447477
 10
7607.856654813642
 20
10138.36660915176
 10
7607.982837829672
 20
10137.45363791811
 10
7608.012527951093
 20
10136.83756789865
 10
7608.042218072514
 20
10136.08046980245
 10
7608.057063133223
 20
10135.2491464027
 10
7608.064485663579
 20
10134.33617516905
 10
7607.129246838859
 20
10134.00216130307
 10
7606.260810787334
 20
10133.70526008888
 10
7605.496290160779
 20
10133.46773911752
 10
7604.835684959192
 20
10133.28217585865
 10
7604.271572652219
 20
10133.15599284261
 10
7604.086009393346
 20
10133.10403513013
 10
7603.521897086372
 20
10132.79228885523
 10
7603.855910952344
 20
10132.48054258032
 10
7604.115699514766
 20
10132.3840496857
 10
7604.850530019902
 20
10132.28755679109
 10
7605.704121010716
 20
10132.39889474641
 10
7606.194008014141
 20
10132.52507776245
 10
7606.958528640696
 20
10132.74033114274
 10
7607.730471797606
 20
10132.98527464445
 10
7607.478105765541
 20
10132.37662715535
 10
7607.129246838859
 20
10131.56014881631
 10
7606.787810442533
 20
10130.79562818975
 10
7606.446374046207
 20
10130.09048780604
 10
7606.119782710591
 20
10129.44472766516
 10
7605.793191374975
 20
10128.85834776712
 10
7605.652163298232
 20
10128.61340426541
 10
7605.214234007291
 20
10127.90826388169
 10
7604.768882185998
 20
10127.2328136194
 10
7604.316107834349
 20
10126.59447600887
 10
7603.855910952344
 20
10125.99325105013
 10
7603.417981661404
 20
10125.44398380386
 10
7603.38086900963
 20
10125.20646283251
 10
7603.937558786248
 20
10125.48851898599
 10
7604.449713380737
 20
10125.84480044303
 10
7605.028670748421
 20
10126.3272649161
 10
7605.615050646457
 20
10126.91364481414
 10
7606.208853074851
 20
10127.59651760679
 10
7606.579979592595
 20
10128.10867220128
 10
7606.995641292471
 20
10128.75443234215
 10
7607.381612870925
 20
10129.45215019551
 10
7607.737894327962
 20
10130.18698070065
 10
7608.064485663579
 20
10130.96634638792
 10
7608.03479554216
 20
10130.00883997213
 10
7607.997682890385
 20
10129.10329126883
 10
7607.96057023861
 20
10128.30165799051
 10
7607.930880117191
 20
10127.60394013714
 10
7607.893767465417
 20
10127.0027151784
 10
7607.893767465417
 20
10126.99529264804
 10
7607.81211963151
 20
10126.13427912687
 10
7607.671091554768
 20
10125.35491343961
 10
7607.478105765541
 20
10124.64235052553
 10
7607.359345279862
 20
10123.93721014182
 10
7607.470683235186
 20
10123.19495710633
 10
7607.81211963151
 20
10122.45270407083
 10
7608.071908193934
 20
10122.08157755309
 10
7608.44303471168
 20
10122.0296198406
 10
7608.739935925875
 20
10122.7050701029
 10
7608.747358456229
 20
10122.76445034574
 10
7608.799316168715
 20
10123.12815433313
 10
7608.843851350844
 20
10123.6106188062
 10
7608.880964002619
 20
10124.19699870424
  0
LWPOLYLINE
  5
7F
330
2
100
AcDbEntity
  8
0
 62
     0
370
     0
100
AcDbPolyline
 90
      104
 70
     1
 43
0.0
 10
7622.590377568137
 20
10125.39944862173
 10
7622.367701657491
 20
10125.97098345906
 10
7622.211828520036
 20
10126.75777167668
 10
7622.130180686133
 20
10127.75981327459
 10
7622.041110321872
 20
10128.47979871902
 10
7621.914927305841
 20
10128.88803788854
 10
7621.788744289808
 20
10128.52433390115
 10
7621.714518986259
 20
10128.19774256553
 10
7621.558645848804
 20
10127.37384169614
 10
7621.454730423836
 20
10126.66870131242
 10
7621.180096800705
 20
10126.00809611084
 10
7620.608561963376
 20
10125.5701668199
 10
7620.267125567051
 20
10125.48851898599
 10
7619.52487253156
 20
10125.48109645564
 10
7618.589633706841
 20
10125.65923718416
 10
7618.411492978323
 20
10125.71119489664
 10
7617.89191585348
 20
10126.03778623226
 10
7617.513366805379
 20
10126.57220841781
 10
7617.268423303667
 20
10127.3144614533
 10
7617.157085348343
 20
10128.27196786908
 10
7617.149662817988
 20
10128.43526353689
 10
7617.105127635858
 20
10129.28885452771
 10
7617.105127635858
 20
10130.1127553971
 10
7617.142240287633
 20
10130.90696614508
 10
7617.216465591183
 20
10131.67148677163
 10
7617.327803546506
 20
10132.39889474641
 10
7617.350071137571
 20
10132.50281017138
 10
7617.595014639284
 20
10133.48258417823
 10
7617.899338383835
 20
10134.17287950124
 10
7618.25561984087
 20
10134.58854120111
 10
7618.507985872937
 20
10134.79637205105
 10
7618.337267674774
 20
10135.34563929731
 10
7617.96614115703
 20
10135.57573773832
 10
7617.246155712603
 20
10135.93944172571
 10
7616.889874255567
 20
10136.02851208997
 10
7616.318339418238
 20
10135.76872352754
 10
7615.858142536234
 20
10135.36048435802
 10
7615.056509257904
 20
10134.92255506708
 10
7614.17322814567
 20
10134.65534397431
 10
7613.534890535146
 20
10134.67018903502
 10
7613.304792094145
 20
10134.74441433857
 10
7612.525426406879
 20
10134.92255506708
 10
7612.317595556941
 20
10134.8705973546
 10
7612.525426406879
 20
10134.25452733514
 10
7612.710989665753
 20
10133.92793599953
 10
7612.889130394271
 20
10133.29702091936
 10
7612.993045819239
 20
10132.4508524589
 10
7613.030158471014
 20
10131.38943061815
 10
7612.985623288884
 20
10130.58037480946
 10
7612.90397545498
 20
10129.74905140971
 10
7612.785214969301
 20
10128.96226319209
 10
7612.629341831848
 20
10128.21258762625
 10
7612.443778572975
 20
10127.50744724253
 10
7612.362130739072
 20
10127.24023614975
 10
7612.065229524874
 20
10126.47571552319
 10
7611.701525537485
 20
10125.77799766984
 10
7611.263596246543
 20
10125.13966005931
 10
7610.758864182411
 20
10124.56070269163
 10
7610.283822239695
 20
10124.00401291501
 10
7610.179906814727
 20
10123.69968917046
 10
7610.677216348506
 20
10123.88525242933
 10
7610.833089485961
 20
10123.97432279359
 10
7611.441736975064
 20
10124.38256196311
 10
7612.035539403454
 20
10124.90956161831
 10
7612.614496771138
 20
10125.5701668199
 10
7612.807482560366
 20
10125.84480044303
 10
7613.163764017402
 20
10126.46087046249
 10
7613.460665231598
 20
10127.1660108462
 10
7613.698186202956
 20
10127.96764412453
 10
7613.876326931475
 20
10128.85834776712
 10
7613.898594522537
 20
10129.07360114741
 10
7613.972819826087
 20
10129.75647394007
 10
7614.02477753857
 20
10130.48388191485
 10
7614.0693127207
 20
10131.27067013247
 10
7614.09900284212
 20
10132.10199353222
 10
7614.121270433185
 20
10132.98527464445
 10
7614.128692963539
 20
10133.91309093882
 10
7614.447861768801
 20
10134.0318514245
 10
7615.279185168549
 20
10134.31390757798
 10
7615.895255188009
 20
10134.50689336721
 10
7616.489057616401
 20
10134.41782300295
 10
7616.474212555691
 20
10134.24710480479
 10
7616.422254843207
 20
10133.55680948178
 10
7616.318339418238
 20
10132.39889474641
 10
7616.2589591754
 20
10131.96838798583
 10
7616.177311341495
 20
10131.18159976821
 10
7616.110508568302
 20
10130.38738902023
 10
7616.073395916527
 20
10129.5857557419
 10
7616.065973386172
 20
10128.77669993322
 10
7616.088240977235
 20
10128.06413701915
 10
7616.177311341495
 20
10127.2328136194
 10
7616.340607009303
 20
10126.49056058391
 10
7616.570705450306
 20
10125.82253285196
 10
7616.630085693144
 20
10125.67408224487
 10
7617.023479801956
 20
10125.0431671647
 10
7617.587592108929
 20
10124.56070269163
 10
7618.337267674774
 20
10124.22668882566
 10
7618.938492633522
 20
10124.07823821856
 10
7619.680745669014
 20
10124.01143544537
 10
7620.497224008055
 20
10124.06339315785
 10
7621.373082589932
 20
10124.22668882566
 10
7622.189560928972
 20
10124.46420979701
 10
7622.672025402042
 20
10124.84275884512
 10
7622.634912750267
 20
10125.31780078783
  0
LWPOLYLINE
  5
80
330
2
100
AcDbEntity
  8
0
 62
     0
370
     0
100
AcDbPolyline
 90
       46
 70
     1
 43
0.0
 10
7605.295881841197
 20
10158.89732811344
 10
7605.867416678527
 20
10159.56535584539
 10
7606.461219106916
 20
10160.34472153265
 10
7607.730471797606
 20
10162.11128375712
 10
7607.938302647544
 20
10162.10386122677
 10
7608.569217727712
 20
10162.1483964089
 10
7609.393118597107
 20
10162.28942448564
 10
7610.424850316441
 20
10162.53436798735
 10
7611.397201792931
 20
10162.80900161048
 10
7611.842553614228
 20
10163.09105776397
 10
7611.686680476774
 20
10163.38053644781
 10
7610.966695032349
 20
10163.61063488881
 10
7610.254132118278
 20
10163.46218428171
 10
7609.675174750593
 20
10163.23950837107
 10
7608.910654124038
 20
10163.01683246042
 10
7607.982837829672
 20
10162.78673401942
 10
7608.183246149256
 20
10163.17270559787
 10
7608.665710622325
 20
10164.02629658869
 10
7609.073949791846
 20
10164.65721166885
 10
7609.407963657817
 20
10165.06545083837
 10
7609.638062098821
 20
10165.4068872347
 10
7609.407963657817
 20
10165.99326713274
 10
7608.977456897232
 20
10166.28274581658
 10
7608.316851695644
 20
10166.66129486468
 10
7608.168401088548
 20
10166.69840751646
 10
7607.893767465417
 20
10166.2456331648
 10
7607.901189995772
 20
10166.20852051303
 10
7607.871499874351
 20
10165.52564772038
 10
7607.641401433349
 20
10164.64236660815
 10
7607.633978902993
 20
10164.60525395637
 10
7607.4187255227
 20
10164.01887405833
 10
7607.129246838859
 20
10163.33600126568
 10
7606.750697790758
 20
10162.55663557842
 10
7606.297923439109
 20
10161.69562205725
 10
7606.25338825698
 20
10161.6213967537
 10
7605.822881496395
 20
10160.88656624856
 10
7605.384952205454
 20
10160.1888483952
 10
7604.932177853806
 20
10159.52824319361
 10
7604.479403502157
 20
10158.9047506438
 10
7604.019206620151
 20
10158.32579327612
 10
7603.989516498733
 20
10158.28125809399
 10
7603.440249252469
 20
10157.59838530133
 10
7603.425404191759
 20
10157.38313192104
 10
7603.937558786248
 20
10157.65034301382
 10
7604.256727591509
 20
10157.88786398518
 10
7604.761459655643
 20
10158.34063833683
  0
LWPOLYLINE
  5
81
330
2
100
AcDbEntity
  8
0
 62
     0
370
     0
100
AcDbPolyline
 90
       32
 70
     1
 43
0.0
 10
7617.075437514438
 20
10160.98305914317
 10
7617.075437514438
 20
10161.35418566092
 10
7616.585550511015
 20
10161.52490385908
 10
7615.724536989846
 20
10161.35418566092
 10
7615.331142881037
 20
10161.22058011453
 10
7614.574044784835
 20
10160.97563661282
 10
7613.787256567214
 20
10160.76780576288
 10
7613.623960899406
 20
10162.11128375712
 10
7613.757566445794
 20
10162.15581893925
 10
7614.329101283122
 20
10162.28942448564
 10
7615.153002152517
 20
10162.47498774451
 10
7616.22926905398
 20
10162.70508618551
 10
7617.283268364376
 20
10162.92033956581
 10
7618.084901642707
 20
10163.03910005148
 10
7618.507985872937
 20
10163.03910005148
 10
7618.708394192521
 20
10162.74219883729
 10
7618.671281540745
 20
10161.77726989115
 10
7618.671281540745
 20
10161.73273470902
 10
7618.530253464001
 20
10160.92367890033
 10
7618.337267674774
 20
10160.15173574342
 10
7618.084901642707
 20
10159.41690523829
 10
7618.070056581998
 20
10159.41690523829
 10
7617.453986562539
 20
10159.33525740438
 10
7616.756268709178
 20
10159.23134197942
 10
7615.969480491559
 20
10159.09031390267
 10
7615.093621909679
 20
10158.93444076522
 10
7614.128692963539
 20
10158.74145497599
 10
7613.957974765376
 20
10160.26307369875
 10
7614.061890190345
 20
10160.26307369875
 10
7614.863523468677
 20
10160.31503141123
 10
7615.635466625588
 20
10160.45605948798
 10
7616.399987252144
 20
10160.67873539862
  0
LWPOLYLINE
  5
82
330
2
100
AcDbEntity
  8
0
 62
     0
370
     0
100
AcDbPolyline
 90
       68
 70
     1
 43
0.0
 10
7609.252090520364
 20
10152.49910694751
 10
7609.883005600531
 20
10153.02610660271
 10
7610.499075619988
 20
10153.53083866684
 10
7611.092878048381
 20
10154.02814820062
 10
7611.211638534062
 20
10154.13948615595
 10
7611.233906125125
 20
10154.24340158092
 10
7610.959272501993
 20
10154.17659880772
 10
7610.395160195022
 20
10153.93165530601
 10
7609.541569204205
 20
10153.51599360613
 10
7608.398499529549
 20
10152.9296137081
 10
7608.569217727712
 20
10156.38109032313
 10
7609.007147018651
 20
10156.49985080881
 10
7609.949808373726
 20
10156.75963937123
 10
7610.677216348506
 20
10156.97489275152
 10
7611.181948412641
 20
10157.14561094969
 10
7611.464004566126
 20
10157.25694890501
 10
7611.34524408045
 20
10157.73199084772
 10
7610.892469728799
 20
10157.96208928873
 10
7610.172484284372
 20
10157.90270904589
 10
7610.150216693307
 20
10157.89528651553
 10
7609.482188961365
 20
10157.6206528924
 10
7608.650865561616
 20
10157.30890661749
 10
7608.65828809197
 20
10157.35344179962
 10
7608.843851350844
 20
10158.48166641357
 10
7608.903231593683
 20
10158.91217317415
 10
7608.569217727712
 20
10159.33525740438
 10
7608.73251339552
 20
10159.37237005616
 10
7609.459921370302
 20
10159.59504596681
 10
7610.254132118278
 20
10159.92163730242
 10
7610.706906469926
 20
10160.24080610768
 10
7610.588145984248
 20
10160.67873539862
 10
7609.979498495147
 20
10160.79007335395
 10
7609.15559762575
 20
10160.59708756472
 10
7608.829006290135
 20
10160.44121442727
 10
7608.094175784998
 20
10160.15915827378
 10
7607.307387567377
 20
10159.92163730242
 10
7606.750697790758
 20
10159.69896139178
 10
7606.713585138987
 20
10159.41690523829
 10
7607.389035401282
 20
10159.16453920622
 10
7607.4187255227
 20
10159.16453920622
 10
7607.626556372638
 20
10158.88990558309
 10
7607.730471797606
 20
10158.16249760831
 10
7607.730471797606
 20
10156.97489275152
 10
7607.351922749507
 20
10156.87097732655
 10
7606.409261394434
 20
10156.6334563552
 10
7605.667008358942
 20
10156.47016068739
 10
7605.117741112678
 20
10156.38109032313
 10
7604.731769534224
 20
10156.30686501958
 10
7604.783727246708
 20
10155.96542862326
 10
7604.909910262742
 20
10155.86893572864
 10
7605.622473176811
 20
10155.62399222693
 10
7605.852571617815
 20
10155.61656969657
 10
7606.550289471177
 20
10155.75017524296
 10
7607.641401433349
 20
10156.04707645716
 10
7607.641401433349
 20
10155.60914716622
 10
7607.596866251218
 20
10154.55514785582
 10
7607.49295082625
 20
10153.71640192572
 10
7607.344500219152
 20
10153.09290937591
 10
7607.136669369214
 20
10152.67724767603
 10
7606.765542851468
 20
10152.11313536906
 10
7606.631937305079
 20
10151.4970653496
 10
7606.639359835433
 20
10151.37088233357
 10
7606.965951171051
 20
10150.65831941949
 10
7607.203472142408
 20
10150.45048856956
 10
7607.730471797606
 20
10150.8216150873
 10
7607.982837829672
 20
10151.19274160505
 10
7608.494992424162
 20
10151.77169897273
 10
7609.15559762575
 20
10152.42488164396
  0
LWPOLYLINE
  5
83
330
2
100
AcDbEntity
  8
0
 62
     0
370
     0
100
AcDbPolyline
 90
      149
 70
     1
 43
0.0
 10
7616.644930753854
 20
10154.15433121666
 10
7616.652353284209
 20
10155.14895028422
 10
7616.652353284209
 20
10156.21779465532
 10
7617.134817757278
 20
10156.31428754994
 10
7618.218507189095
 20
10156.51469586952
 10
7618.931070103165
 20
10156.59634370342
 10
7619.265083969138
 20
10156.55180852129
 10
7619.294774090558
 20
10156.52211839987
 10
7619.599097835109
 20
10155.79471042509
 10
7619.599097835109
 20
10155.32709101273
 10
7619.599097835109
 20
10154.4438099005
 10
7619.539717592271
 20
10153.9984580792
 10
7619.265083969138
 20
10153.52341613649
 10
7619.027562997779
 20
10153.50114854542
 10
7618.166549476611
 20
10153.6867118043
 10
7617.736042716027
 20
10153.67186674359
 10
7618.084901642707
 20
10153.18197974016
 10
7618.374380326549
 20
10152.91476864739
 10
7618.901379981747
 20
10152.31354368864
 10
7619.346731803041
 20
10151.66778354776
 10
7619.443224697658
 20
10151.4970653496
 10
7619.866308927884
 20
10151.32634715144
 10
7620.356195931309
 20
10151.92014957983
 10
7620.415576174149
 20
10152.03148753515
 10
7620.660519675862
 20
10152.72178285816
 10
7620.816392813314
 20
10153.50114854542
 10
7620.860927995443
 20
10154.36216206659
 10
7620.846082934734
 20
10154.88173919144
 10
7620.883195586507
 20
10155.74275271261
 10
7621.031646193606
 20
10156.29944248922
 10
7621.098448966801
 20
10156.46273815703
 10
7620.860927995443
 20
10157.05654058543
 10
7620.534336659827
 20
10157.21241372288
 10
7619.76981603327
 20
10157.47962481566
 10
7619.37642192446
 20
10157.54642758885
 10
7618.671281540745
 20
10157.39797698175
 10
7618.404070447969
 20
10157.27179396572
 10
7617.698930064252
 20
10157.08623070685
 10
7616.652353284209
 20
10156.89324491762
 10
7616.823071482372
 20
10157.56127264956
 10
7616.793381360952
 20
10157.68745566559
 10
7616.266381705753
 20
10157.93982169766
 10
7615.138157091806
 20
10158.23672291186
 10
7615.650311686296
 20
10158.33321580647
 10
7616.437099903916
 20
10158.48166641357
 10
7617.216465591183
 20
10158.65238461173
 10
7618.003253808804
 20
10158.83052534025
 10
7618.337267674774
 20
10158.50393400463
 10
7618.841999738909
 20
10158.83052534025
 10
7619.034985528135
 20
10159.20907438835
 10
7619.368999394106
 20
10159.90679224171
 10
7619.76981603327
 20
10160.76780576288
 10
7620.007337004628
 20
10161.29480541808
 10
7620.452688825924
 20
10161.97025568038
 10
7620.949998359702
 20
10162.37107231954
 10
7621.276589695319
 20
10162.66797353374
 10
7620.949998359702
 20
10163.20981824965
 10
7620.860927995443
 20
10163.25435343178
 10
7620.148365081374
 20
10163.63290247988
 10
7619.435802167301
 20
10163.96691634585
 10
7618.849422269263
 20
10164.07825430117
 10
7618.166549476611
 20
10163.88526851194
 10
7617.839958140995
 20
10163.70712778343
 10
7617.290690894731
 20
10163.50671946384
 10
7616.533592798531
 20
10163.29146608355
 10
7615.56124132204
 20
10163.04652258184
 10
7614.381058995606
 20
10162.78673401942
 10
7614.46270682951
 20
10162.89807197474
 10
7615.190114804292
 20
10163.81846573875
 10
7615.821029884459
 20
10164.5681413046
 10
7616.340607009303
 20
10165.15452120263
 10
7616.756268709178
 20
10165.57018290251
 10
7617.075437514438
 20
10165.82254893458
 10
7617.372338728635
 20
10166.02295725416
 10
7617.246155712603
 20
10166.49799919687
 10
7616.689465935984
 20
10166.72067510752
 10
7615.895255188009
 20
10167.00273126101
 10
7615.472170957779
 20
10167.03984391278
 10
7615.30887528997
 20
10166.66129486468
 10
7615.30887528997
 20
10166.65387233433
 10
7615.390523123874
 20
10166.02295725416
 10
7615.138157091806
 20
10165.14709867228
 10
7614.982283954354
 20
10164.84277492773
 10
7614.611157436609
 20
10164.21185984756
 10
7614.158383084959
 20
10163.52898705491
 10
7613.623960899406
 20
10162.78673401942
 10
7613.134073895982
 20
10162.80157908013
 10
7612.362130739072
 20
10162.87580438368
 10
7612.183990010554
 20
10162.88322691403
 10
7612.109764707004
 20
10162.45272015345
 10
7612.250792783747
 20
10162.15581893925
 10
7612.614496771138
 20
10161.44325602518
 10
7612.636764362203
 20
10161.34676313056
 10
7612.777792438946
 20
10160.79007335395
 10
7612.963355697819
 20
10159.98101754526
 10
7613.200876669177
 20
10158.91217317415
 10
7613.275101972725
 20
10158.60042689925
 10
7613.542313065501
 20
10157.81363868163
 10
7613.824369218988
 20
10157.60580783169
 10
7614.128692963539
 20
10157.98435687979
 10
7614.885791059741
 20
10158.15507507795
 10
7614.885791059741
 20
10158.1476525476
 10
7615.30887528997
 20
10157.47962481566
 10
7615.331142881037
 20
10157.41282204246
 10
7615.472170957779
 20
10156.64087888555
 10
7615.390523123874
 20
10156.61861129449
 10
7614.314256222413
 20
10156.38109032313
 10
7613.549735595857
 20
10156.29944248922
 10
7613.119228835272
 20
10156.38109032313
 10
7612.955933167464
 20
10156.43304803562
 10
7612.191412540909
 20
10156.55180852129
 10
7612.154299889134
 20
10156.55180852129
 10
7612.109764707004
 20
10155.96542862326
 10
7612.265637844457
 20
10155.33451354309
 10
7612.273060374812
 20
10154.53288026476
 10
7612.191412540909
 20
10153.92423277565
 10
7612.020694342746
 20
10153.18197974016
 10
7612.005849282033
 20
10152.65498008496
 10
7612.362130739072
 20
10151.92014957983
 10
7612.518003876525
 20
10151.74200885131
 10
7612.800060030011
 20
10151.92757211018
 10
7613.030158471014
 20
10152.84796587419
 10
7613.111806304917
 20
10153.34527540797
 10
7613.208299199532
 20
10154.16175374701
 10
7613.26767944237
 20
10154.94854196463
 10
7613.28252450308
 20
10155.71306259119
 10
7615.472170957779
 20
10156.04707645716
 10
7615.472170957779
 20
10155.58687957516
 10
7615.479593488133
 20
10154.55514785582
 10
7615.479593488133
 20
10153.59021890968
 10
7615.487016018487
 20
10152.6995152671
 10
7615.494438548842
 20
10151.8756143977
 10
7615.509283609553
 20
10151.12593883185
 10
7615.524128670262
 20
10150.45048856956
 10
7615.538973730973
 20
10149.84184108046
 10
7615.56124132204
 20
10149.3074188949
 10
7615.56124132204
 20
10149.19608093958
 10
7615.613199034521
 20
10148.09012391669
 10
7615.754227111266
 20
10147.54085667043
 10
7615.976903021913
 20
10147.53343414008
 10
7615.999170612977
 20
10147.55570173114
 10
7616.192156402205
 20
10148.01589861315
 10
7616.355452070013
 20
10148.79526430041
 10
7616.489057616401
 20
10149.89379879294
 10
7616.518747737821
 20
10150.36884073565
 10
7616.555860389595
 20
10150.9700656944
 10
7616.585550511015
 20
10151.65293848705
 10
7616.607818102081
 20
10152.41003658325
 10
7616.630085693144
 20
10153.241359983
  0
LWPOLYLINE
  5
84
330
2
100
AcDbEntity
  8
0
 62
     0
370
     0
100
AcDbPolyline
 90
       81
 70
     1
 43
0.0
 10
7606.550289471177
 20
10184.83907170386
 10
7606.832345624663
 20
10184.46794518611
 10
7607.314810097732
 20
10183.85929769701
 10
7607.893767465417
 20
10183.15415731329
 10
7607.500373356605
 20
10182.67169284022
 10
7606.958528640696
 20
10182.04820029041
 10
7606.416683924789
 20
10181.48408798344
 10
7605.874839208879
 20
10180.96451085859
 10
7605.704121010716
 20
10180.82348278185
 10
7605.04351580913
 20
10180.29648312665
 10
7604.397755668252
 20
10179.83628624465
 10
7603.766840588085
 20
10179.44289213584
 10
7603.7148828756
 20
10179.40577948406
 10
7603.262108523951
 20
10178.99754031454
 10
7603.766840588085
 20
10179.02723043596
 10
7603.982093968378
 20
10179.06434308774
 10
7604.65012170032
 20
10179.26475140732
 10
7605.39237473581
 20
10179.59134274293
 10
7606.208853074851
 20
10180.03669456423
 10
7606.862035746082
 20
10180.48204638552
 10
7607.470683235186
 20
10180.9793559193
 10
7608.042218072514
 20
10181.53604569592
 10
7608.569217727712
 20
10182.14469318502
 10
7608.7028232741
 20
10181.94428486544
 10
7609.111062443621
 20
10181.34305990669
 10
7609.667752220239
 20
10180.54142662836
 10
7609.853315479111
 20
10180.2890605963
 10
7610.410005255729
 20
10179.86597636607
 10
7610.840512016314
 20
10180.11834239813
 10
7611.011230214477
 20
10180.74183494795
 10
7610.840512016314
 20
10181.55089075663
 10
7610.558455862828
 20
10182.04077776005
 10
7610.090836450469
 20
10182.67169284022
 10
7609.497034022076
 20
10183.3174529811
 10
7609.704864872013
 20
10183.74795974168
 10
7610.009188616564
 20
10184.4531001254
 10
7610.306089830761
 20
10185.2101982216
 10
7610.588145984248
 20
10186.01925403029
 10
7610.81824442525
 20
10186.83573236933
 10
7611.033497805543
 20
10187.6299431173
 10
7611.181948412641
 20
10188.20890048498
 10
7611.34524408045
 20
10188.60971712415
 10
7611.857398674937
 20
10189.21836461325
 10
7612.005849282033
 20
10189.38908281141
 10
7611.768328310677
 20
10189.97546270945
 10
7611.449159505418
 20
10190.18329355939
 10
7610.758864182411
 20
10190.56926513785
 10
7610.432272846795
 20
10190.66575803246
 10
7609.749400054143
 20
10190.48019477359
 10
7609.504456552429
 20
10190.31689910578
 10
7608.836428820488
 20
10190.0348429523
 10
7607.893767465417
 20
10189.81216704164
 10
7607.144091899569
 20
10189.64887137384
 10
7606.335036090884
 20
10189.51526582745
 10
7605.704121010716
 20
10189.47073064532
 10
7605.362684614391
 20
10189.41877293284
 10
7605.704121010716
 20
10189.04764641509
 10
7606.342458621239
 20
10188.77301279196
 10
7607.055021535312
 20
10188.71363254912
 10
7607.351922749507
 20
10188.77301279196
 10
7608.146133497482
 20
10188.96599858119
 10
7608.546950136648
 20
10189.06991400615
 10
7609.326315823913
 20
10189.21836461325
 10
7609.57868185598
 20
10189.09218159722
 10
7609.704864872013
 20
10188.50580169918
 10
7609.57868185598
 20
10187.45180238878
 10
7609.57868185598
 20
10187.43695732807
 10
7609.356005945334
 20
10186.55367621584
 10
7609.118484973976
 20
10185.75946546786
 10
7608.851273881199
 20
10185.0469025538
 10
7608.569217727712
 20
10184.41598747363
 10
7608.398499529549
 20
10184.57928314143
 10
7607.708204206542
 20
10185.18050810018
 10
7607.062444065666
 20
10185.69266269467
 10
7606.446374046207
 20
10186.1157469249
 10
7605.874839208879
 20
10186.44233826052
 10
7605.704121010716
 20
10186.52398609442
 10
7605.140008703743
 20
10186.67985923187
 10
7605.370107144747
 20
10186.27162006235
 10
7605.533402812554
 20
10186.06378921242
 10
7606.038134876688
 20
10185.43287413225
  0
LWPOLYLINE
  5
85
330
2
100
AcDbEntity
  8
0
 62
     0
370
     0
100
AcDbPolyline
 90
       91
 70
     1
 43
0.0
 10
7614.128692963539
 20
10180.71214482653
 10
7614.17322814567
 20
10180.72698988724
 10
7614.833833347255
 20
10181.06100375321
 10
7615.487016018487
 20
10181.5063555745
 10
7616.147621220076
 20
10182.05562282077
 10
7616.696888466339
 20
10181.3579049674
 10
7617.186775469763
 20
10180.71956735688
 10
7617.580169578573
 20
10180.19999023204
 10
7618.070056581998
 20
10179.53938503045
 10
7618.589633706841
 20
10179.02723043596
 10
7619.094365770975
 20
10178.70063910034
 10
7619.940534231436
 20
10178.51507584147
 10
7619.977646883208
 20
10178.51507584147
 10
7620.653097145506
 20
10178.49280825041
 10
7621.454730423836
 20
10178.52249837183
 10
7622.382546718201
 20
10178.60414620573
 10
7623.013461798368
 20
10178.73032922177
 10
7623.109954692982
 20
10178.96042766277
 10
7622.464194552104
 20
10179.27959646803
 10
7621.840702002292
 20
10179.48000478761
 10
7621.113294027511
 20
10179.77690600181
 10
7620.393308583082
 20
10180.13318745884
 10
7619.688168199366
 20
10180.54142662836
 10
7619.37642192446
 20
10180.74183494795
 10
7618.790042026422
 20
10181.18718676924
 10
7618.21108465874
 20
10181.71418642444
 10
7617.639549821412
 20
10182.31541138319
 10
7617.075437514438
 20
10182.98343911513
 10
7617.097705105504
 20
10183.02797429726
 10
7617.387183789346
 20
10183.68115696849
 10
7617.676662473186
 20
10184.40114241292
 10
7617.96614115703
 20
10185.18050810018
 10
7618.25561984087
 20
10186.01925403029
 10
7618.31500008371
 20
10186.21966234987
 10
7618.597056237196
 20
10187.14747864423
 10
7618.827154678197
 20
10187.89715421008
 10
7619.012717937072
 20
10188.46126651705
 10
7619.153746013815
 20
10188.94373099012
 10
7619.517450001204
 20
10189.55980100958
 10
7619.346731803041
 20
10190.14618090762
 10
7618.990450346005
 20
10190.40596947004
 10
7618.25561984087
 20
10190.82163116991
 10
7617.698930064252
 20
10190.97008177701
 10
7617.075437514438
 20
10190.73256080565
 10
7616.585550511015
 20
10190.31689910578
 10
7615.813607354104
 20
10189.97546270945
 10
7615.672579277362
 20
10189.92350499697
 10
7614.90063612045
 20
10189.68598402561
 10
7614.128692963539
 20
10189.55980100958
 10
7613.727876324375
 20
10189.46330811496
 10
7614.039622599283
 20
10189.13671677935
 10
7614.56662225448
 20
10188.89919580799
 10
7615.219804925711
 20
10188.88435074728
 10
7615.739382050556
 20
10189.01795629367
 10
7616.652353284209
 20
10189.30743497751
 10
7617.164507878698
 20
10189.32228003822
 10
7617.498521744669
 20
10188.88435074728
 10
7617.446564032185
 20
10188.49837916883
 10
7617.327803546506
 20
10187.74128107263
 10
7617.157085348343
 20
10186.77635212649
 10
7617.008634741245
 20
10186.1973947588
 10
7616.748846178824
 20
10185.45514172331
 10
7616.437099903916
 20
10184.72031121818
 10
7616.065973386172
 20
10183.9929032434
 10
7615.620621564878
 20
10184.49763530753
 10
7615.093621909679
 20
10185.10628279663
 10
7614.633425027673
 20
10185.67781763396
 10
7614.225185858154
 20
10186.18254969809
 10
7613.876326931475
 20
10186.77635212649
 10
7613.542313065501
 20
10187.06583081033
 10
7612.696144605042
 20
10187.28108419062
 10
7612.139454828424
 20
10187.20685888707
 10
7612.362130739072
 20
10186.85799996039
 10
7612.710989665753
 20
10186.56852127655
 10
7613.252834381659
 20
10186.01183149993
 10
7613.876326931475
 20
10185.26215593408
 10
7614.084157781412
 20
10184.98752231095
 10
7614.596312375899
 20
10184.31949457901
 10
7615.056509257904
 20
10183.68115696849
 10
7615.472170957779
 20
10183.06508694903
 10
7615.42763577565
 20
10183.01312923655
 10
7614.90063612045
 20
10182.44901692958
 10
7614.291988631348
 20
10181.92943980473
 10
7613.623960899406
 20
10181.46924292273
 10
7613.052426062077
 20
10181.1278065264
 10
7612.332440617652
 20
10180.7492574783
 10
7611.686680476774
 20
10180.4523562641
 10
7611.322976489383
 20
10180.23710288381
 10
7611.939046508841
 20
10180.19999023204
 10
7612.577384119363
 20
10180.28163806594
 10
7613.35674980663
 20
10180.4523562641
  0
LWPOLYLINE
  5
86
330
2
100
AcDbEntity
  8
0
100
AcDbPolyline
 90
        4
 70
     1
 43
0.0
 10
7965.626302073117
 20
10020.90211885835
 10
8025.826302073113
 20
10020.90211885835
 10
8025.826302073113
 20
9950.652118858362
 10
7965.626302073117
 20
9950.652118858362
  0
CIRCLE
  5
87
330
2
100
AcDbEntity
  8
0
100
AcDbCircle
 10
7975.626302073116
 20
10010.90211885836
 30
0.0
 40
3.524999999999999
  0
CIRCLE
  5
88
330
2
100
AcDbEntity
  8
0
100
AcDbCircle
 10
7985.676302073116
 20
10010.90211885836
 30
0.0
 40
3.524999999999999
  0
CIRCLE
  5
89
330
2
100
AcDbEntity
  8
0
100
AcDbCircle
 10
7995.726302073115
 20
10010.90211885836
 30
0.0
 40
3.524999999999999
  0
CIRCLE
  5
8A
330
2
100
AcDbEntity
  8
0
100
AcDbCircle
 10
8005.776302073114
 20
10010.90211885836
 30
0.0
 40
3.524999999999999
  0
CIRCLE
  5
8B
330
2
100
AcDbEntity
  8
0
100
AcDbCircle
 10
8015.826302073113
 20
10010.90211885836
 30
0.0
 40
3.524999999999999
  0
CIRCLE
  5
8C
330
2
100
AcDbEntity
  8
0
100
AcDbCircle
 10
7975.626302073116
 20
10000.85211885836
 30
0.0
 40
3.524999999999999
  0
CIRCLE
  5
8D
330
2
100
AcDbEntity
  8
0
100
AcDbCircle
 10
7985.676302073116
 20
10000.85211885836
 30
0.0
 40
3.524999999999999
  0
CIRCLE
  5
8E
330
2
100
AcDbEntity
  8
0
100
AcDbCircle
 10
7995.726302073115
 20
10000.85211885836
 30
0.0
 40
3.524999999999999
  0
CIRCLE
  5
8F
330
2
100
AcDbEntity
  8
0
100
AcDbCircle
 10
8005.776302073114
 20
10000.85211885836
 30
0.0
 40
3.524999999999999
  0
CIRCLE
  5
90
330
2
100
AcDbEntity
  8
0
100
AcDbCircle
 10
8015.826302073113
 20
10000.85211885836
 30
0.0
 40
3.524999999999999
  0
CIRCLE
  5
91
330
2
100
AcDbEntity
  8
0
100
AcDbCircle
 10
7975.626302073116
 20
9990.80211885836
 30
0.0
 40
3.524999999999999
  0
CIRCLE
  5
92
330
2
100
AcDbEntity
  8
0
100
AcDbCircle
 10
7985.676302073116
 20
9990.80211885836
 30
0.0
 40
3.524999999999999
  0
CIRCLE
  5
93
330
2
100
AcDbEntity
  8
0
100
AcDbCircle
 10
7995.726302073115
 20
9990.80211885836
 30
0.0
 40
3.524999999999999
  0
CIRCLE
  5
94
330
2
100
AcDbEntity
  8
0
100
AcDbCircle
 10
8005.776302073114
 20
9990.80211885836
 30
0.0
 40
3.524999999999999
  0
CIRCLE
  5
95
330
2
100
AcDbEntity
  8
0
100
AcDbCircle
 10
8015.826302073113
 20
9990.80211885836
 30
0.0
 40
3.524999999999999
  0
CIRCLE
  5
96
330
2
100
AcDbEntity
  8
0
100
AcDbCircle
 10
7975.626302073116
 20
9980.75211885836
 30
0.0
 40
3.524999999999999
  0
CIRCLE
  5
97
330
2
100
AcDbEntity
  8
0
100
AcDbCircle
 10
7985.676302073116
 20
9980.75211885836
 30
0.0
 40
3.524999999999999
  0
CIRCLE
  5
98
330
2
100
AcDbEntity
  8
0
100
AcDbCircle
 10
7995.726302073115
 20
9980.75211885836
 30
0.0
 40
3.524999999999999
  0
CIRCLE
  5
99
330
2
100
AcDbEntity
  8
0
100
AcDbCircle
 10
8005.776302073114
 20
9980.75211885836
 30
0.0
 40
3.524999999999999
  0
CIRCLE
  5
9A
330
2
100
AcDbEntity
  8
0
100
AcDbCircle
 10
8015.826302073113
 20
9980.75211885836
 30
0.0
 40
3.524999999999999
  0
CIRCLE
  5
9B
330
2
100
AcDbEntity
  8
0
100
AcDbCircle
 10
7975.626302073116
 20
9970.702118858362
 30
0.0
 40
3.524999999999999
  0
CIRCLE
  5
9C
330
2
100
AcDbEntity
  8
0
100
AcDbCircle
 10
7985.676302073116
 20
9970.702118858362
 30
0.0
 40
3.524999999999999
  0
CIRCLE
  5
9D
330
2
100
AcDbEntity
  8
0
100
AcDbCircle
 10
7995.726302073115
 20
9970.702118858362
 30
0.0
 40
3.524999999999999
  0
CIRCLE
  5
9E
330
2
100
AcDbEntity
  8
0
100
AcDbCircle
 10
8005.776302073114
 20
9970.702118858362
 30
0.0
 40
3.524999999999999
  0
CIRCLE
  5
9F
330
2
100
AcDbEntity
  8
0
100
AcDbCircle
 10
8015.826302073113
 20
9970.702118858362
 30
0.0
 40
3.524999999999999
  0
CIRCLE
  5
A0
330
2
100
AcDbEntity
  8
0
100
AcDbCircle
 10
7975.626302073116
 20
9960.652118858362
 30
0.0
 40
3.524999999999999
  0
CIRCLE
  5
A1
330
2
100
AcDbEntity
  8
0
100
AcDbCircle
 10
7985.676302073116
 20
9960.652118858362
 30
0.0
 40
3.524999999999999
  0
CIRCLE
  5
A2
330
2
100
AcDbEntity
  8
0
100
AcDbCircle
 10
7995.726302073115
 20
9960.652118858362
 30
0.0
 40
3.524999999999999
  0
CIRCLE
  5
A3
330
2
100
AcDbEntity
  8
0
100
AcDbCircle
 10
8005.776302073114
 20
9960.652118858362
 30
0.0
 40
3.524999999999999
  0
CIRCLE
  5
A4
330
2
100
AcDbEntity
  8
0
100
AcDbCircle
 10
8015.826302073113
 20
9960.652118858362
 30
0.0
 40
3.524999999999999
  0
ENDSEC
  0
SECTION
  2
OBJECTS
  0
DICTIONARY
  5
A
330
0
100
AcDbDictionary
281
     1
  3
ACAD_COLOR
350
3F
  3
ACAD_GROUP
350
36
  3
ACAD_LAYOUT
350
17
  3
ACAD_MATERIAL
350
C
  3
ACAD_MLEADERSTYLE
350
42
  3
ACAD_MLINESTYLE
350
37
  3
ACAD_PLOTSETTINGS
350
38
  3
ACAD_PLOTSTYLENAME
350
9
  3
ACAD_SCALELIST
350
40
  3
ACAD_TABLESTYLE
350
41
  3
ACAD_VISUALSTYLE
350
2C
  3
ACDB_RECOMPOSE_DATA
350
A8
  3
AcDbVariableDictionary
350
43
  0
DICTIONARY
  5
1F
330
1E
100
AcDbDictionary
280
     1
281
     1
  3
ACAD_LAYERSTATES
360
20
  0
DICTIONARY
  5
7
330
6
100
AcDbDictionary
280
     1
281
     1
  0
DICTIONARY
  5
3
330
2
100
AcDbDictionary
280
     1
281
     1
  3
ACAD_SORTENTS
360
A5
  0
DICTIONARY
  5
3F
102
{ACAD_REACTORS
330
A
102
}
330
A
100
AcDbDictionary
281
     1
  0
DICTIONARY
  5
36
102
{ACAD_REACTORS
330
A
102
}
330
A
100
AcDbDictionary
281
     1
  0
DICTIONARY
  5
17
102
{ACAD_REACTORS
330
A
102
}
330
A
100
AcDbDictionary
281
     1
  3
Model
350
16
  3
布局1
350
1D
  0
DICTIONARY
  5
C
102
{ACAD_REACTORS
330
A
102
}
330
A
100
AcDbDictionary
281
     1
  3
ByBlock
350
3C
  3
ByLayer
350
39
  3
Global
350
B
  0
DICTIONARY
  5
42
102
{ACAD_REACTORS
330
A
102
}
330
A
100
AcDbDictionary
281
     1
  0
DICTIONARY
  5
37
102
{ACAD_REACTORS
330
A
102
}
330
A
100
AcDbDictionary
281
     1
  3
Standard
350
52
  3
Z
350
4D
  0
DICTIONARY
  5
38
102
{ACAD_REACTORS
330
A
102
}
330
A
100
AcDbDictionary
281
     1
  0
ACDBDICTIONARYWDFLT
  5
9
102
{ACAD_REACTORS
330
A
102
}
330
A
100
AcDbDictionary
281
     1
  3
Normal
350
8
100
AcDbDictionaryWithDefault
340
8
  0
DICTIONARY
  5
40
102
{ACAD_REACTORS
330
A
102
}
330
A
100
AcDbDictionary
281
     1
  3
A0
350
53
  3
A1
350
54
  3
A2
350
55
  3
A3
350
56
  3
A4
350
57
  3
A5
350
58
  3
A6
350
59
  3
A7
350
5A
  3
A8
350
5B
  3
A9
350
5C
  3
B0
350
5D
  3
B1
350
5E
  3
B2
350
5F
  3
B3
350
60
  3
B4
350
61
  3
B5
350
62
  3
B6
350
63
  0
DICTIONARY
  5
41
102
{ACAD_REACTORS
330
A
102
}
330
A
100
AcDbDictionary
281
     1
  3
Standard
350
4E
  0
DICTIONARY
  5
2C
102
{ACAD_REACTORS
330
A
102
}
330
A
100
AcDbDictionary
281
     1
  3
2dWireframe
350
2B
  3
Realistic
350
50
  3
Wireframe
350
51
  0
XRECORD
  5
A8
102
{ACAD_REACTORS
330
A
102
}
330
A
100
AcDbXrecord
280
     1
 90
        1
330
4E
  0
DICTIONARY
  5
43
102
{ACAD_REACTORS
330
A
102
}
330
A
100
AcDbDictionary
281
     1
  3
CANNOSCALE
350
44
  3
CMLEADERSTYLE
350
45
  3
CTABLESTYLE
350
46
  3
CVIEWDETAILSTYLE
350
47
  3
CVIEWSECTIONSTYLE
350
48
  3
DIMASSOC
350
49
  3
HIDETEXT
350
4A
  3
LAYEREVAL
350
4B
  3
LAYERNOTIFY
350
4C
  0
DICTIONARY
  5
20
102
{ACAD_REACTORS
330
1F
102
}
330
1F
100
AcDbDictionary
281
     1
  0
SORTENTSTABLE
  5
A5
102
{ACAD_REACTORS
330
3
102
}
330
3
100
AcDbSortentsTable
330
2
331
78
  5
94
331
98
  5
71
331
88
  5
81
331
79
  5
90
331
99
  5
70
331
89
  5
80
331
7A
  5
8F
331
9A
  5
6F
331
8A
  5
7F
331
7B
  5
8E
331
9B
  5
6E
331
8B
  5
7E
331
7C
  5
8D
331
9C
  5
6D
331
8C
  5
7D
331
64
  5
A4
331
7D
  5
8C
331
9D
  5
6C
331
8D
  5
7C
331
65
  5
A3
331
7E
  5
8B
331
9E
  5
6B
331
8E
  5
7B
331
66
  5
A2
331
7F
  5
8A
331
9F
  5
6A
331
8F
  5
7A
331
67
  5
A1
331
80
  5
89
331
A0
  5
68
331
90
  5
79
331
81
  5
88
331
91
  5
78
331
68
  5
91
331
77
  5
95
331
76
  5
96
331
75
  5
97
331
74
  5
98
331
73
  5
93
331
72
  5
99
331
71
  5
9A
331
70
  5
9B
331
82
  5
87
331
92
  5
77
331
6A
  5
A0
331
A2
  5
66
331
A1
  5
67
331
93
  5
76
331
6B
  5
9F
331
A3
  5
65
331
84
  5
85
331
6C
  5
9E
331
A4
  5
64
331
85
  5
84
331
95
  5
74
331
94
  5
75
331
86
  5
83
331
96
  5
73
331
87
  5
82
331
97
  5
72
331
6F
  5
9C
331
6E
  5
92
331
6D
  5
9D
331
83
  5
86
  0
LAYOUT
  5
16
102
{ACAD_XDICTIONARY
360
18
102
}
102
{ACAD_REACTORS
330
17
102
}
330
17
100
AcDbPlotSettings
  1

  2
none_device
  4
ISO_A4_(210.00_x_297.00_MM)
  6

 40
7.5
 41
20.0
 42
7.5
 43
20.0
 44
210.0
 45
297.0
 46
11.54999923706054
 47
-13.65000009536743
 48
0.0
 49
0.0
140
0.0
141
0.0
142
1.0
143
8.704084754739808
 70
 11952
 72
     1
 73
     0
 74
     0
  7

 75
     0
147
0.1148885871608098
 76
     0
 77
     2
 78
   300
148
0.0
149
0.0
100
AcDbLayout
  1
Model
 70
     1
 71
     0
 10
0.0
 20
0.0
 11
12.0
 21
9.0
 12
0.0
 22
0.0
 32
0.0
 14
0.0
 24
0.0
 34
0.0
 15
0.0
 25
0.0
 35
0.0
146
0.0
 13
0.0
 23
0.0
 33
0.0
 16
1.0
 26
0.0
 36
0.0
 17
0.0
 27
1.0
 37
0.0
 76
     0
330
2
331
2A
1001
ACAD_PSEXT
1000
None
1000
None
1000
Not applicable
1000
The layout will not be plotted unless a new plotter configuration name is selected.
1070
     0
  0
LAYOUT
  5
1D
102
{ACAD_REACTORS
330
17
102
}
330
17
100
AcDbPlotSettings
  1

  2
C:\Documents and Settings\basas\Application Data\Autodesk\AutoCAD 2005\R16.1\enu\plotters\Default Windows System Printer.pc3
  4

  6

 40
0.0
 41
0.0
 42
0.0
 43
0.0
 44
0.0
 45
0.0
 46
0.0
 47
0.0
 48
0.0
 49
0.0
140
0.0
141
0.0
142
1.0
143
1.0
 70
   688
 72
     0
 73
     0
 74
     5
  7

 75
    16
147
1.0
 76
     0
 77
     2
 78
   300
148
0.0
149
0.0
100
AcDbLayout
  1
布局1
 70
     1
 71
     1
 10
0.0
 20
0.0
 11
12.0
 21
9.0
 12
0.0
 22
0.0
 32
0.0
 14
0.0
 24
0.0
 34
0.0
 15
0.0
 25
0.0
 35
0.0
146
0.0
 13
0.0
 23
0.0
 33
0.0
 16
1.0
 26
0.0
 36
0.0
 17
0.0
 27
1.0
 37
0.0
 76
     0
330
1A
  0
MATERIAL
  5
3C
102
{ACAD_XDICTIONARY
360
3D
102
}
102
{ACAD_REACTORS
330
C
102
}
330
C
100
AcDbMaterial
  1
ByBlock
 94
       63
  0
MATERIAL
  5
39
102
{ACAD_XDICTIONARY
360
3A
102
}
102
{ACAD_REACTORS
330
C
102
}
330
C
100
AcDbMaterial
  1
ByLayer
 94
       63
  0
MATERIAL
  5
B
102
{ACAD_XDICTIONARY
360
D
102
}
102
{ACAD_REACTORS
330
C
102
}
330
C
100
AcDbMaterial
  1
Global
 43
0.0007999999797903
 43
0.0
 43
0.0
 43
0.0
 43
0.0
 43
0.0007999999797903
 43
0.0
 43
0.0
 43
0.0
 43
0.0
 43
1.0
 43
0.0
 43
0.0
 43
0.0
 43
0.0
 43
1.0
 49
0.0007999999797903
 49
0.0
 49
0.0
 49
0.0
 49
0.0
 49
0.0007999999797903
 49
0.0
 49
0.0
 49
0.0
 49
0.0
 49
1.0
 49
0.0
 49
0.0
 49
0.0
 49
0.0
 49
1.0
142
0.0007999999797903
142
0.0
142
0.0
142
0.0
142
0.0
142
0.0007999999797903
142
0.0
142
0.0
142
0.0
142
0.0
142
1.0
142
0.0
142
0.0
142
0.0
142
0.0
142
1.0
144
0.0007999999797903
144
0.0
144
0.0
144
0.0
144
0.0
144
0.0007999999797903
144
0.0
144
0.0
144
0.0
144
0.0
144
1.0
144
0.0
144
0.0
144
0.0
144
0.0
144
1.0
 94
       63
1001
ACAD
1070
    -1
1070
     3
1070
     0
1000

1071
        0
1070
     0
  0
MLINESTYLE
  5
52
102
{ACAD_REACTORS
330
37
102
}
330
37
100
AcDbMlineStyle
  2
STANDARD
 70
     0
  3

 62
   256
 51
90.0
 52
90.0
 71
     2
 49
0.5
 62
   256
  6
BYLAYER
 49
-0.5
 62
   256
  6
BYLAYER
  0
MLINESTYLE
  5
4D
102
{ACAD_REACTORS
330
37
102
}
330
37
100
AcDbMlineStyle
  2
Z
 70
   272
  3

 62
   256
 51
90.0
 52
90.0
 71
     2
 49
0.5
 62
   256
  6
BYLAYER
 49
-0.5
 62
   256
  6
BYLAYER
  0
ACDBPLACEHOLDER
  5
8
102
{ACAD_REACTORS
330
9
102
}
330
9
  0
SCALE
  5
53
102
{ACAD_REACTORS
330
40
102
}
330
40
100
AcDbScale
 70
     0
300
1:1
140
1.0
141
1.0
290
     1
  0
SCALE
  5
54
102
{ACAD_REACTORS
330
40
102
}
330
40
100
AcDbScale
 70
     0
300
1:2
140
1.0
141
2.0
290
     0
  0
SCALE
  5
55
102
{ACAD_REACTORS
330
40
102
}
330
40
100
AcDbScale
 70
     0
300
1:4
140
1.0
141
4.0
290
     0
  0
SCALE
  5
56
102
{ACAD_REACTORS
330
40
102
}
330
40
100
AcDbScale
 70
     0
300
1:5
140
1.0
141
5.0
290
     0
  0
SCALE
  5
57
102
{ACAD_REACTORS
330
40
102
}
330
40
100
AcDbScale
 70
     0
300
1:8
140
1.0
141
8.0
290
     0
  0
SCALE
  5
58
102
{ACAD_REACTORS
330
40
102
}
330
40
100
AcDbScale
 70
     0
300
1:10
140
1.0
141
10.0
290
     0
  0
SCALE
  5
59
102
{ACAD_REACTORS
330
40
102
}
330
40
100
AcDbScale
 70
     0
300
1:16
140
1.0
141
16.0
290
     0
  0
SCALE
  5
5A
102
{ACAD_REACTORS
330
40
102
}
330
40
100
AcDbScale
 70
     0
300
1:20
140
1.0
141
20.0
290
     0
  0
SCALE
  5
5B
102
{ACAD_REACTORS
330
40
102
}
330
40
100
AcDbScale
 70
     0
300
1:30
140
1.0
141
30.0
290
     0
  0
SCALE
  5
5C
102
{ACAD_REACTORS
330
40
102
}
330
40
100
AcDbScale
 70
     0
300
1:40
140
1.0
141
40.0
290
     0
  0
SCALE
  5
5D
102
{ACAD_REACTORS
330
40
102
}
330
40
100
AcDbScale
 70
     0
300
1:50
140
1.0
141
50.0
290
     0
  0
SCALE
  5
5E
102
{ACAD_REACTORS
330
40
102
}
330
40
100
AcDbScale
 70
     0
300
1:100
140
1.0
141
100.0
290
     0
  0
SCALE
  5
5F
102
{ACAD_REACTORS
330
40
102
}
330
40
100
AcDbScale
 70
     0
300
2:1
140
2.0
141
1.0
290
     0
  0
SCALE
  5
60
102
{ACAD_REACTORS
330
40
102
}
330
40
100
AcDbScale
 70
     0
300
4:1
140
4.0
141
1.0
290
     0
  0
SCALE
  5
61
102
{ACAD_REACTORS
330
40
102
}
330
40
100
AcDbScale
 70
     0
300
8:1
140
8.0
141
1.0
290
     0
  0
SCALE
  5
62
102
{ACAD_REACTORS
330
40
102
}
330
40
100
AcDbScale
 70
     0
300
10:1
140
10.0
141
1.0
290
     0
  0
SCALE
  5
63
102
{ACAD_REACTORS
330
40
102
}
330
40
100
AcDbScale
 70
     0
300
100:1
140
100.0
141
1.0
290
     0
  0
TABLESTYLE
  5
4E
102
{ACAD_XDICTIONARY
360
4F
102
}
102
{ACAD_REACTORS
330
41
102
}
330
41
100
AcDbTableStyle
280
     0
  3
Standard
 70
     0
 71
     0
 40
1.5
 41
1.5
280
     0
281
     0
  7
Standard
140
4.5
170
     2
 62
     0
 63
     7
283
     0
 90
      512
 91
        0
  1

274
    -2
284
     1
 64
     0
275
    -2
285
     1
 65
     0
276
    -2
286
     1
 66
     0
277
    -2
287
     1
 67
     0
278
    -2
288
     1
 68
     0
279
    -2
289
     1
 69
     0
  7
Standard
140
6.0
170
     5
 62
     0
 63
     7
283
     0
 90
      512
 91
        0
  1

274
    -2
284
     1
 64
     0
275
    -2
285
     1
 65
     0
276
    -2
286
     1
 66
     0
277
    -2
287
     1
 67
     0
278
    -2
288
     1
 68
     0
279
    -2
289
     1
 69
     0
  7
Standard
140
4.5
170
     5
 62
     0
 63
     7
283
     0
 90
      512
 91
        0
  1

274
    -2
284
     1
 64
     0
275
    -2
285
     1
 65
     0
276
    -2
286
     1
 66
     0
277
    -2
287
     1
 67
     0
278
    -2
288
     1
 68
     0
279
    -2
289
     1
 69
     0
  0
VISUALSTYLE
  5
2B
102
{ACAD_REACTORS
330
2C
102
}
330
2C
100
AcDbVisualStyle
  2
2dWireframe
 70
     4
177
     3
291
     0
 70
    58
 90
        0
176
     1
 90
        2
176
     1
 90
        1
176
     1
 90
        0
176
     1
 40
0.6
176
     1
 40
30.0
176
     1
 62
     7
420
 16777215
176
     1
 90
        1
176
     1
 90
        4
176
     1
 62
     7
176
     1
 62
   257
176
     1
 90
        1
176
     1
 90
        1
176
     1
 40
1.0
176
     1
 90
        0
176
     1
 62
   257
176
     1
 40
1.0
176
     1
 90
        1
176
     1
 90
        6
176
     1
 90
        2
176
     1
 62
     7
176
     1
 90
        5
176
     1
 90
        0
176
     1
 90
        0
176
     1
290
     0
176
     1
 90
        1
176
     1
 40
0.0
176
     1
 90
        0
176
     1
290
     1
176
     1
290
     1
176
     1
290
     0
176
     1
290
     0
176
     1
290
     0
176
     1
290
     0
176
     1
290
     0
176
     1
290
     0
176
     1
290
     0
176
     1
 90
       50
176
     1
 40
0.0
176
     1
 40
1.0
176
     1
 90
        0
176
     1
 62
    18
176
     1
 90
       50
176
     1
 90
        3
176
     1
 62
     5
420
      255
176
     1
290
     0
176
     1
 90
       50
176
     1
 90
       50
176
     1
 90
       50
176
     1
290
     0
176
     1
 90
       50
176
     1
 62
   256
176
     0
 40
1.0
176
     0
 90
        2
176
     1
  1
strokes_ogs.tif
176
     1
290
     0
176
     1
 40
1.0
176
     1
 40
1.0
176
     1
1001
ACAD
1000
AcDbSavedByObjectVersion
1070
     0
  0
VISUALSTYLE
  5
50
102
{ACAD_REACTORS
330
2C
102
}
330
2C
100
AcDbVisualStyle
  2
Realistic
 70
     8
177
     3
291
     0
 70
    58
 90
        2
176
     1
 90
        3
176
     1
 90
        0
176
     1
 90
        2
176
     1
 40
0.6
176
     1
 40
30.0
176
     1
 62
     7
420
 16777215
176
     1
 90
        0
176
     1
 90
        0
176
     1
 62
     7
176
     1
 62
   257
176
     1
 90
        1
176
     1
 90
        1
176
     1
 40
1.0
176
     1
 90
        8
176
     1
 62
   257
176
     1
 40
1.0
176
     1
 90
        1
176
     1
 90
        6
176
     1
 90
        2
176
     1
 62
     7
176
     1
 90
        3
176
     1
 90
        0
176
     1
 90
        0
176
     1
290
     0
176
     1
 90
       13
176
     1
 40
0.0
176
     1
 90
        0
176
     1
290
     0
176
     1
290
     1
176
     1
290
     1
176
     1
290
     0
176
     1
290
     0
176
     1
290
     0
176
     1
290
     0
176
     1
290
     0
176
     1
290
     0
176
     1
 90
       50
176
     1
 40
0.0
176
     1
 40
1.0
176
     1
 90
        0
176
     1
 62
    18
176
     1
 90
       50
176
     1
 90
        3
176
     1
 62
     5
420
      255
176
     1
290
     0
176
     1
 90
       50
176
     1
 90
       50
176
     1
 90
       50
176
     1
290
     0
176
     1
 90
       50
176
     1
 62
   256
176
     0
 40
1.0
176
     0
 90
        2
176
     1
  1
strokes_ogs.tif
176
     1
290
     0
176
     1
 40
1.0
176
     1
 40
1.0
176
     1
1001
ACAD
1000
AcDbSavedByObjectVersion
1070
     0
  0
VISUALSTYLE
  5
51
102
{ACAD_REACTORS
330
2C
102
}
330
2C
100
AcDbVisualStyle
  2
Wireframe
 70
     5
177
     3
291
     0
 70
    58
 90
        0
176
     1
 90
        2
176
     1
 90
        0
176
     1
 90
        0
176
     1
 40
0.6
176
     1
 40
30.0
176
     1
 62
     7
420
 16777215
176
     1
 90
        1
176
     1
 90
        4
176
     1
 62
     7
176
     1
 62
   257
176
     1
 90
        1
176
     1
 90
        1
176
     1
 40
1.0
176
     1
 90
        0
176
     1
 62
   257
176
     1
 40
1.0
176
     1
 90
        1
176
     1
 90
        6
176
     1
 90
        2
176
     1
 62
     7
176
     1
 90
        3
176
     1
 90
        0
176
     1
 90
        0
176
     1
290
     0
176
     1
 90
        1
176
     1
 40
0.0
176
     1
 90
        0
176
     1
290
     0
176
     1
290
     1
176
     1
290
     1
176
     1
290
     0
176
     1
290
     0
176
     1
290
     0
176
     1
290
     0
176
     1
290
     0
176
     1
290
     0
176
     1
 90
       50
176
     1
 40
0.0
176
     1
 40
1.0
176
     1
 90
        0
176
     1
 62
    18
176
     1
 90
       50
176
     1
 90
        3
176
     1
 62
     5
420
      255
176
     1
290
     0
176
     1
 90
       50
176
     1
 90
       50
176
     1
 90
       50
176
     1
290
     0
176
     1
 90
       50
176
     1
 62
   256
176
     0
 40
1.0
176
     0
 90
        2
176
     1
  1
strokes_ogs.tif
176
     1
290
     0
176
     1
 40
1.0
176
     1
 40
1.0
176
     1
1001
ACAD
1000
AcDbSavedByObjectVersion
1070
     0
  0
DICTIONARYVAR
  5
44
102
{ACAD_REACTORS
330
43
102
}
330
43
100
DictionaryVariables
280
     0
  1
1:1
  0
DICTIONARYVAR
  5
45
102
{ACAD_REACTORS
330
43
102
}
330
43
100
DictionaryVariables
280
     0
  1
STANDARD
  0
DICTIONARYVAR
  5
46
102
{ACAD_REACTORS
330
43
102
}
330
43
100
DictionaryVariables
280
     0
  1
STANDARD
  0
DICTIONARYVAR
  5
47
102
{ACAD_REACTORS
330
43
102
}
330
43
100
DictionaryVariables
280
     0
  1

  0
DICTIONARYVAR
  5
48
102
{ACAD_REACTORS
330
43
102
}
330
43
100
DictionaryVariables
280
     0
  1

  0
DICTIONARYVAR
  5
49
102
{ACAD_REACTORS
330
43
102
}
330
43
100
DictionaryVariables
280
     0
  1
2
  0
DICTIONARYVAR
  5
4A
102
{ACAD_REACTORS
330
43
102
}
330
43
100
DictionaryVariables
280
     0
  1
1
  0
DICTIONARYVAR
  5
4B
102
{ACAD_REACTORS
330
43
102
}
330
43
100
DictionaryVariables
280
     0
  1
0
  0
DICTIONARYVAR
  5
4C
102
{ACAD_REACTORS
330
43
102
}
330
43
100
DictionaryVariables
280
     0
  1
0
  0
DICTIONARY
  5
18
330
16
100
AcDbDictionary
280
     1
281
     1
  0
DICTIONARY
  5
3D
330
3C
100
AcDbDictionary
280
     1
281
     1
  3
FBXASSET
360
3E
  0
DICTIONARY
  5
3A
330
39
100
AcDbDictionary
280
     1
281
     1
  3
FBXASSET
360
3B
  0
DICTIONARY
  5
D
330
B
100
AcDbDictionary
280
     1
281
     1
  3
BUMPTILE
360
E
  3
DIFFUSETILE
360
F
  3
FBXASSET
360
10
  3
OPACITYTILE
360
11
  3
REFLECTIONTILE
360
12
  0
DICTIONARY
  5
4F
330
4E
100
AcDbDictionary
280
     1
281
     1
  3
ACAD_ROUNDTRIP_2008_TABLESTYLE_CELLSTYLEMAP
360
A6
  0
XRECORD
  5
3E
102
{ACAD_REACTORS
330
3D
102
}
330
3D
100
AcDbXrecord
280
     1
 70
     1
 90
429727718
  1
D62C5603-E3A1-4AEA-B7FB-FE5D8D0755AF
310
504B03040A0000080000CC70623B3DEE336E79000000790000001B0000006175746F6465736B2D64657369676E2D7061636B6167652E786D6C3C3F786D6C2076657273696F6E3D22312E302220656E636F64696E673D227574662D3822203F3E3C666F726D6174733E3C666F726D61743E687474703A2F2F736368656D612E
310
6175746F6465736B2E636F6D2F64657369676E2D7061636B6167652F323030393C2F666F726D61743E3C2F666F726D6174733E504B0304140006080800CC70623BD486FD9CA0000000F4000000130000005B436F6E74656E745F54797065735D2E786D6C7D8EC10E82300C865F65E91D8A1E8C310C0EEA1BF002731658846E
310
D98AC1B77784ABF1D8FE5FBFBF75BBCE937A534CCEB38643598122B6FEE978D0B0485F9C41B54DDD7D022595594E1A469170414C76A4D9A4D207E29CF43ECE46F218070CC6BECC4078ACAA135ACF422C856C0E68EA1BF5669944DDD7BCDE7B1F8E415D77AECB980613C2E4AC91FC167A2B244592486606FC29C8FD7F045B9A
310
EF7053A7E60B504B0304140006080800CC70623B853B8169EB0000007C01000008000000636F72652E786D6C8D90416EC3201045AF62CDB6C206821CC7C244919D9CA01740401C94182C03558F5F9C3852BBEB6A467FFE9B197D7EFC9E1EC5975982F5AE035262288C535E5B377690E21535501C055FBC8FBF6C503839990E
310
5619041F179FE64D52DE45E362569DD7661365082642A11EB9E920A89B99642953CC8E702F67A9EE7234257977194EC9EAE275C4EABCCF5EAD5940D4AC6F0E35A568B8F43562CD7046CD199FD07E60174276A7BE677B5EADB0E0D14EEFFB6A31321A0D82627C4084204C3F096B71DD52F6819B16635EADF63F509AF53FA164
310
5DDCD1EDDD17164090FCC8732078B56691CB33A85CD7DCC40F504B0304140006080800CC70623B55019EA25F0000007C00000007000000636E782E786D6C4DCB3B0E80201045D1AD90E915ED2CF8AC45050C11660C8261F98AB1B07AC9C97D42D718D865D3E909258CFD00CCE24AC6E326A164D74DC0B4128928FF32603847
310
2BA13128B1252AC747C6BAB984FC68F0B87FE8960A5C09FE86CFB69FBA01504B0304140006080800CC70623BDBABAAF470010000D40300000C0000006662782F636F72652E786D6CC553D16E823014FD95A6AF4B694182CC941A83FA05FB810A9511A125A5257EFE2E82712ECEB8A7F100CD39F7F69E734AF9FADC366850B6
310
AF8DCE7018308C942E4C59EB2AC3DE1D498AD15A706B8CFB56869196ADCAF00863C12B6B7C374385D14E6907A836A59A41D9F7CA615434B0C8705F7CAA5606D23BA8E84F41278B93AC54100640439DE0BDB320004D43C63716C7C399D30917DCFBBA9CD9BA8469F5B156168B24CED3F7248AC8769F27244EB73B92EED8862C
310
B7F13E0C179B3C8F979C8ECD82BBBABDAA2BAC924E9558448CBD9330242CFA08E3154B5651FCC6D215639C8EE5774DBE2B5F6CF2B5768B68963BB5F5588420E442FC700B1139D4CB01F450C1E918227C2E09DF070D8140C84E1E9AAB8F1340832A9CB13130A5F1376A908D57309505ECF2A0DF179C4E9D30F5B239B87E3823
310
7A79C6F31DE1A8A5AEC08474B03C7837EAE4938639B44E5932B833D2C6B6B279CDC613877FA26EE21F4A2A4C63EC7F29A2F301D1F9F7A0E37D145F504B0304140006080800CC70623B9C113CC27E0000009D0000000B0000006662782F636E782E786D6C4DCCDF0A83201C86E15B91DFB94BFB330DD428C8FB886521330DA7
310
6397BF1A1DECE883878F57749FCDA1B7892F1BBC047A23808C7F84D9FA55424E0BE6803A256208E9EF06C84F9B91703228B1C690F78B66B34CD9A5439DF5CF0BFBF65E35BCA1B8D6A5C6F540381E886698B5741C695F9503EBA150A2F8958E3DC3EA0B504B0304140006080800CC70623B7DF2F77C2A010000120200003100
310
00006662782F41393633353835312D344632462D344230382D423046372D3739314545314133324237412F636F72652E786D6C8D51DB8EC22014FC15C2939B0D2DB4B45643319AE817EC0F6041255A68B86CFCFC856D4D76DF7CE190393373060EDB3DC707F856CE6B6B7A480A0C81328395DA5C7B18C3057510EC3873D686
310
3F34088C18550F330C39BB3A1BA7051AAC09CA84841A2BD5020AEF55806078A44B0FFD7053A328440C89E1EFC52486BBB8AA8214A99D789CF9E05200300FC927E4FB4D5B375D43103D5527440FB843077C5AA3F5861C8F645F5787F59E95B390B318B55CE45AA638FAA2957BD7248B390B7A7CC51F9C124149C82B8C378810
310
84AB2F42B7B8DD56F413775B8C5999E9FF4471926F8AA236A1AE96B8B3CC434E5839373893369E1FAF30EA395917409EB7F26AF8801C171837A4A6AC9C89E9F9C9B1A58BA30FD6A5EF5DDDCF894B9AD9B6A59C957943A9FCAE2FD5BC4DFE03504B0304140006080800CC70623BAD7543B64E01000033030000300000006662
310
782F41393633353835312D344632462D344230382D423046372D3739314545314133324237412F636E782E786D6CD593CD6EC32010845F0571AD6CE3D48AD20813A9873E410FBD12D82434182C7EAAE6EDBB2424CD25871E7B41D6EC30B3FA84F9E67BB2E40B4234DE8DB46F1925E094D7C6ED479AD3AE5951B2113C789FEE
310
6C943839C1488B4C05DF079FE72A69D8C96C13AAD6B8631503449F83828872B949AC57D26200B826A308D316B4064D6E46FCDA41C05550DC9E483A00797BFD207EFB092A45DE9514C1BBD22178396BD39D891265658C238DEA00936C654E5E433CB65A26D9F6EDB5EBC14EBF49A45CB856E66048291F6939A9A81BB5C89177
310
38143CA680F4AA299D66A042CEB3354A2684DC9D8D178FE0D9B8B41CAAD720F880EE7EF93C0C18769E099ECC04D5A102C8049A8A05632F4DDF376CF1DE0F6BB65C2F8627B65A33C6BB62177CEBBDAD973006829F89F22E814B54F4BC2BE347F8AA8F681390B50FA73F804400B5F542E796F19FF974E7F78DB802FE05E20750
310
4B0304140006080800CC70623BE75B7789680500003C100000340000006662782F41393633353835312D344632462D344230382D423046372D3739314545314133324237412F6F626A656374732E786D6CAD575B8F9B3818FD2B887D06C22499CB8AA1CA655245D5B455A356FB305264C061D8018C6C3393D95FBFC7600890
310
A4CD5EF210B0B1BFEBF98E3F7B1FF6596ABC522E1296DF9BAE3D320D9A872C4AF2F8DE2CE5CEBA358D0FBEC719939D65A691938CDE9B6ADAF4BD98B3B2D05311DD91329583D9D5FC0F438434A7A611A644887B5384CF34233629258BA878B12322891DEFF6B66BD70BFB62634E8AE781D082709A4B588AF91C528CDA28B73F
310
1C998EEF39EABBEFA97FBD6A7C7E9553F9D3D79FE442923C3C523610337627CB87ABE99D359D4CC6D6E4FACAB5E6ABF9D2726FC6A3C5F56271377BB88362213924694B38DD99FE47C48627A1E7D49F5A8BB5E1A74C0A599ED3B0F21F1E56366B89112D681E218F0915D0D6F17AD41FBA2A369DCF6335D62ABBD39779D5DDD1
310
11D4D8DE3CBB96B2E04FB8202E41051754A1AA8E8F76B4C6DFE810B580B1547F4B84911149794252234D024EF8BBE963A95AE27B3D310A9D5C215C7960FAEE415ED75694C6AFB17BCACA5D99A60A9AA65F217B0BFC53292ACB92BF283FAD0D3621576592CB5BED907C2FA8E9DF794E35E97BEA31BED21FEB401ABB94C44839
310
DCACBF0E1C5DA8DA5B2F4DFFD32AD86F543D9E565E7056502E157C00AD2671CD534549AB752FCA9CDA00677A313F04E51B22FF19E57B300579E3C97EB29F682D92935CEC18CF901B7B54FD8C51F362B56FC72FE0B3C1EAE335EDCCBF5AEC39ADB17DC238973F804BA5E6F6BFE7AF1FB32E523BE9F3BD571418E3631DCA4D48
310
5250CF639223210A9446CA30052EDF057BD35F8329C1ECD84552BF0DC8D18BE7BCE23BFE6BD960AB4A7DE79923A103BEBD80F911CBAA2C60DB19B01CF164A5583B772EE6D3FFA56666CBCDA74DC97724A48F9A58967497E489C4D979006FD7A05E227A1EBDD0F737C623387A9C844D3709995625106D157315F8B8392CD4E0
310
A0B9A720C4BE9829CEF37EA1E13111214D53925356365ADA634861B52519DD27A00AEB808EAF0628E6F435519D446F45CF2C9CF5214F0A15B2F6D06B79DA3EE3CBF7F56780D2F4E7EF73A0F5E5B02A38D07DC852C6B7C1FBB6664213E0C39E3EBA7FF4E1AD23EA2829407C85E586727488B751B2DB9502BC7B228A3FD68B6E
310
A65A22397E690AA8D158D7E404EC8CDA235CC3B7D1898680131CEC2CDF2638C65196279577750F15884AEE19F94199155B92B13297978469D4F8D358DF0AEF7631E28DC8F0D9F437D5D39A83B2231A1D52D543813A824EF8D44BCFF2FA6A31BD1E8DAD87F1CCB526B3879935BF59CDADD5C37479BB1CDD4CA7B3556B516589
310
EF352754B706114D9C885EC9131DE6EFEB43D99AFE2391C2F958179413D7CFEF6B1B6DB1E7600F00DE6E5C67454A339A4BA2E0FBA85ED26F045D454F463DBFCE484C2F90F2E5E3666003662ED8F755951A7D1BECD5B30B550B2785C8E7320B7292A4838DDA71BBC863ED7613CAF659337A3354231D4FF4A182A54904C2898C
310
98B28C4AD0CE056CCF332A80986E571EE9DBC305BB5FEB7E509220A58D25CF042D712A806AC0AD0C657FDEF80D2D9CEAA2EE4D1C76F60BFE74219A06527D6F82DF6412526107381E55E353090704D085B52408A8913C4ED159D79BDA71BB4BC506F4831350EB6F975CD22D69BF7AC49B91A2C0A9DDA3D5CA36AD20FC478E37
310
E61844E2352865EBCB61A275A65283CAAA9DD27703B4102F5AF51EF5F573B75CBB5AD38BC845F7A49F82A0966A49C2E3EA5EA0ECD326CD965F1DB402C6FA8B51A4658C5C5E2EC9E214602E55810345408596591009A82E7E7FFACA19EEA299B14A0081A705CB3296EBC14CDF658DCD336EA6D1136881AAEB87B81AB9EE53D5
310
F5EB8BC8362082DA24122F98680A4E7930C01A0079749CEA14382A0783E5EBA5A10F8C098456A03D6A4AEB6BB881E2513747552A5DB22C7EDAF83BD5528081A365F7FF06504B0304140006080000CC70623B000000000000000000000000350000006662782F41393633353835312D344632462D344230382D423046372D37
310
39314545314133324237412F76657274696365732E62696E504B0304140006080800CC70623BF270F1330600000004000000360000006662782F41393633353835312D344632462D344230382D423046372D3739314545314133324237412F747269616E676C65732E62696E636660600000504B0304140006080000CC7062
310
3B000000000000000000000000370000006662782F41393633353835312D344632462D344230382D423046372D3739314545314133324237412F617474726962757465732E62696E504B0304140006080800CC70623B08DA0BD19000000041010000360000006662782F41393633353835312D344632462D344230382D4230
310
46372D3739314545314133324237412F6469726563746F72792E786D6C858F410AC3201045AF22B36F53E9A60B35CBEEBAE80D244E44489C6234F4F835464A48035D0DF398FF9F8AF63D0E6CC63039F212F8F9020C7D47C6792B21C5FE7403D62A1188E2E60C98D7234A5830286103A55745067B9D86B8A3CF9C7F90C11DE6
310
07FB144396D7B6A82D282E9A152AD114D5EF2CB866EEE831B8EEA07A7BB5A8D7D61A2BAAEB7FD5F70921FF497D00504B0304140006080800CC70623BEDD1DC58FD000000A00100003B0000006662782F41393633353835312D344632462D344230382D423046372D3739314545314133324237412F7265736F75726365732F
310
636F72652E786D6C8D504B6E833010BD0A9A6D65B00922041947112427E8052C33A156828DFCA97AFC9A40A576D7CDCCE87D344F8F9FBFE667F689CE6B6B3A6039850C8DB2A336530731DC4903D95970676DF82583CCC8193B5861107C72362E3BA4AC096842428D1D7107A5F7182053CF7474E0D507CE32973124857FE48B
310
540F3961CEF244279DE03EB81420DB9EAC1384436FA353E879B1B182C7A8C75DA3C7F453DF353A1075D537A7BA6464B8F535A99AE14A9A2BBD90E350DD183B5CFABE3AF262350B1EF4FC9351399401471025A527C218A1E53BAB5A5AB765F5469B96525EACF23FA6B88CFF34456DC2A1DCE36E360F82A5202F42F062ED2BAD
310
579969AFDD8A6F504B010214000A0000080000CC70623B3DEE336E79000000790000001B00000000000000000000000000000000006175746F6465736B2D64657369676E2D7061636B6167652E786D6C504B01021400140006080800CC70623BD486FD9CA0000000F40000001300000000000000000000000000B20000005B
310
436F6E74656E745F54797065735D2E786D6C504B01021400140006080800CC70623B853B8169EB0000007C010000080000000000000000000000000083010000636F72652E786D6C504B01021400140006080800CC70623B55019EA25F0000007C000000070000000000000000000000000094020000636E782E786D6C504B
310
01021400140006080800CC70623BDBABAAF470010000D40300000C00000000000000000000000000180300006662782F636F72652E786D6C504B01021400140006080800CC70623B9C113CC27E0000009D0000000B00000000000000000000000000B20400006662782F636E782E786D6C504B01021400140006080800CC70
310
623B7DF2F77C2A010000120200003100000000000000000000000000590500006662782F41393633353835312D344632462D344230382D423046372D3739314545314133324237412F636F72652E786D6C504B01021400140006080800CC70623BAD7543B64E010000330300003000000000000000000000000000D2060000
310
6662782F41393633353835312D344632462D344230382D423046372D3739314545314133324237412F636E782E786D6C504B01021400140006080800CC70623BE75B7789680500003C10000034000000000000000000000000006E0800006662782F41393633353835312D344632462D344230382D423046372D3739314545
310
314133324237412F6F626A656374732E786D6C504B01021400140006080000CC70623B0000000000000000000000003500000000000000000000000000280E00006662782F41393633353835312D344632462D344230382D423046372D3739314545314133324237412F76657274696365732E62696E504B01021400140006
310
080800CC70623BF270F133060000000400000036000000000000000000000000007B0E00006662782F41393633353835312D344632462D344230382D423046372D3739314545314133324237412F747269616E676C65732E62696E504B01021400140006080000CC70623B0000000000000000000000003700000000000000
310
000000000000D50E00006662782F41393633353835312D344632462D344230382D423046372D3739314545314133324237412F617474726962757465732E62696E504B01021400140006080800CC70623B08DA0BD1900000004101000036000000000000000000000000002A0F00006662782F41393633353835312D344632
310
462D344230382D423046372D3739314545314133324237412F6469726563746F72792E786D6C504B01021400140006080800CC70623BEDD1DC58FD000000A00100003B000000000000000000000000000E1000006662782F41393633353835312D344632462D344230382D423046372D3739314545314133324237412F7265
310
736F75726365732F636F72652E786D6C504B0506000000000E000E0080040000641100000000
  0
XRECORD
  5
3B
102
{ACAD_REACTORS
330
3A
102
}
330
3A
100
AcDbXrecord
280
     1
 70
     1
 90
429727718
  1
30362254-06B7-45E0-A893-8CFA70E3D6BC
310
504B03040A0000080000CC70623B3DEE336E79000000790000001B0000006175746F6465736B2D64657369676E2D7061636B6167652E786D6C3C3F786D6C2076657273696F6E3D22312E302220656E636F64696E673D227574662D3822203F3E3C666F726D6174733E3C666F726D61743E687474703A2F2F736368656D612E
310
6175746F6465736B2E636F6D2F64657369676E2D7061636B6167652F323030393C2F666F726D61743E3C2F666F726D6174733E504B0304140006080800CC70623BD486FD9CA0000000F4000000130000005B436F6E74656E745F54797065735D2E786D6C7D8EC10E82300C865F65E91D8A1E8C310C0EEA1BF002731658846E
310
D98AC1B77784ABF1D8FE5FBFBF75BBCE937A534CCEB38643598122B6FEE978D0B0485F9C41B54DDD7D022595594E1A469170414C76A4D9A4D207E29CF43ECE46F218070CC6BECC4078ACAA135ACF422C856C0E68EA1BF5669944DDD7BCDE7B1F8E415D77AECB980613C2E4AC91FC167A2B244592486606FC29C8FD7F045B9A
310
EF7053A7E60B504B0304140006080800CC70623B1EC5D7A3EB0000007C01000008000000636F72652E786D6C8D90416EC3201045AF82665B6103C6756C6122AB4D4ED00B204C5C94182C03558F5F9C3852BBEB6A467FFE9B197D71FC9E6FE8CBACC17AD7032D0820E3B41FAD9B7A48F1820F808E52ACDEC75F36404ECDA687
310
4D0629A6D5A76597B477D1B89855E747B38B2A041301E95B6E7A08FAD3CCAA50296647B8168BD2573599823EBB0CA76447F43862C7BCCF5EAC59410E4DDD9C7973C2755553CCCFA4C603E3040F1565ED3B1FDE4E432BCA0D9622DAF9795FAF464533826484B498524CD807E51D79ED187F21878E10516EF63F505AC67F42C9
310
BA58B1FDDD071640D2FCC87D2045B96591CB3DA85CB7DCE40F504B0304140006080800CC70623B55019EA25F0000007C00000007000000636E782E786D6C4DCB3B0E80201045D1AD90E915ED2CF8AC45050C11660C8261F98AB1B07AC9C97D42D718D865D3E909258CFD00CCE24AC6E326A164D74DC0B4128928FF32603847
310
2BA13128B1252AC747C6BAB984FC68F0B87FE8960A5C09FE86CFB69FBA01504B0304140006080800CC70623B8C9102E971010000D40300000C0000006662782F636F72652E786D6CC5535B6E833010BC8AE5DF0A6C08340F1947A84D4ED00B38C6A128602363A31CBFCB234A53A551FA553EC09AD9F5CE8C31DB9E9B1AF5CA
310
7695D1198E428A91D2D214952E33ECDD315861B4E5CC1AE3BE9561A445A3323CC098B3D21ADFCE9034DA29ED00D5A6503328BA4E398C640D8B0C77F253352214DE4145770A5B214FA2546114020D759C75CE8200340D19DE981F0F6746269C33EFAB6266AB02A655C74A59CCF365BADC27CB5D902ED22848F6340DF238A141
310
BE88E2F57B92BFEDF23523433367AE6A2EEAA455C2A902F398D2751045018D3FA264435F3771F242571B4A1919CA6F9A7C5B3CD9E42BED16F12C776AEB308F40C848FC700B1139D4891EF410CEC810227CC6846F8386402064270EF5C5C709A05E49676C024C61FC95EA45ED154CA5211D1FF4FB8291A913A68E9B83EBBB33
310
E2A7673CDE118E5AE8124C0807CB8377834E366998436B950D7A7746DAD846D4CFD978E0F04FD455FC5D49D2D4C6FE9722321F10997F0F32DC47FE05504B0304140006080800CC70623BFFEA85907E0000009D0000000B0000006662782F636E782E786D6C4DCCD10A83201886E15B91FFDC95D95A811AB6F23E625948A6C3
310
E9D8E5AF46073BFAE0E1E365ED67B3E8ADC3CB78C7815C7240DA3DFC64DCC221C519D7805AC182F7F1EF06C88D9BE6703008B6049F9E274D7A1E938DBB5AE3D6131B2589BA0D3D965551E0B2EA732C9B9A624AAEB41E3A557677029960D9AFB4EF11165F504B0304140006080800CC70623B4FEEA4082C0100001202000031
310
0000006662782F39464131463745442D413632322D343644302D413938332D3331353338454246344243312F636F72652E786D6C8D515B6EC32010BC0AE2AB55850DD871ED0813254D72825EC00192A2C460F1A872FC42ED48ED5F7E00CDCECCCEB26C731F6FE05B39AFADE921293004CA082BB5B9F43086336A21D870E6AC
310
0D7F68109861543DCC30E4ECE26C9C164858139409093556AA051CBC570102714B8F1E7AF1A5C6A11862480C7F2DA6415C878B2A4891CA89C7990F2E050073937C42DE1DB7E4F87ED8A36D4329AA9B3D46DBAEAD504556557BD81DEBDD0761E52CE42C462D17B996298E3E6BE59E35C962CE821E1FF18553435012728A7187
310
0841987E927A8D9B35ADDF70BBC6989599FE4F1427F9A4286A132ABAC49D651EF234CD5CE04CDA78BA3DC2A8FB645D00B9DF8B57E215725C60BCA2A463E54C4CE327C7A65E1C7DB02E7DEFCBF594B864C5CA6CDBD49C957943E9FA5D5FBAF336F90F504B0304140006080800CC70623BAD7543B64E01000033030000300000
310
006662782F39464131463745442D413632322D343644302D413938332D3331353338454246344243312F636E782E786D6CD593CD6EC32010845F0571AD6CE3D48AD20813A9873E410FBD12D82434182C7EAAE6EDBB2424CD25871E7B41D6EC30B3FA84F9E67BB2E40B4234DE8DB46F1925E094D7C6ED479AD3AE5951B2113C
310
789FEE6C943839C1488B4C05DF079FE72A69D8C96C13AAD6B8631503449F83828872B949AC57D26200B826A308D316B4064D6E46FCDA41C05550DC9E483A00797BFD207EFB092A45DE9514C1BBD22178396BD39D891265658C238DEA00936C654E5E433CB65A26D9F6EDB5EBC14EBF49A45CB856E66048291F6939A9A81BB5
310
C8917738143CA680F4AA299D66A042CEB3354A2684DC9D8D178FE0D9B8B41CAAD720F880EE7EF93C0C18769E099ECC04D5A102C8049A8A05632F4DDF376CF1DE0F6BB65C2F8627B65A33C6BB62177CEBBDAD973006829F89F22E814B54F4BC2BE347F8AA8F681390B50FA73F804400B5F542E796F19FF974E7F78DB802FE05
310
E207504B0304140006080800CC70623B16AB87BA640500003C100000340000006662782F39464131463745442D413632322D343644302D413938332D3331353338454246344243312F6F626A656374732E786D6CAD575B6FA33818FD2B887DE6924B3BED8A326A92B68A663B534DD4D13E548A0C38942D60649B369D5FBFC7
310
600890A493BDE42160637FD7F31D7FF63E6FB3D478A55C242CBF3247B66B1A340F5994E4F19559CA8D75611A9F7D8F33263BCB4C232719BD32D5B4E97B316765A1A722BA21652A07B3B7B33F0D11D29C9A46981221AE4C113ED38CD8A4942CA2E2C58E882476BCD9DA23BB5ED8171B73523C0F841684D35CC252CCE79062D4
310
468DFA43D7747CCF51DF7D4FFDEB5593E3AB9CCA9FBEFE241792E4E19EB28198C968BAB8199F5D5A67D3E9C49A9E8F47D6EC76B6B0469F26EEFC7C3EBFBCBEB98462213924694B38DD98FE1D62C393D073EA4FADC5DAF04326852CCF6958F90F0F2B9BB5C48816348F90C7840A68EB78EDF68723159BCEE7891A6B95DDE9D3
310
BCEAEEE8086A6C6F9E5D4B59F0175C10A7A0820BAA5055C7473B5AE3CFDD452D602CD5DF12616444529E90D448938013FE6EFA58AA96F85E4F8C42275708571E98FE6827AF6B2B4AE3D7D83D64E5A64C53054DD3AF90BD06FEA9149565C94FCA0F6B834DC85599E4F2423B24DF0B6AFA979E534DFA9E7A4CC6FA631D486393
310
921829879BF5D781A373557BCB85E97FB90DB62B558F8795179C15944B051F40AB495CF35451D26A4727654E6D8033BD98EF82F21D91FF8AF2DD9982BCF1643BDD4EB516C9492E368C67C88DED563FC36D5EACF66DFF057C3658BDBFA69DF9578B3DA735B64F18C7F20770A9D45CFCF7FCF563D6456A277DBEF78A02637CA2
310
43B90A490AEAB94F72244481D24819A6C0E59B606BFA4B3025981DBB48EAB701D97BF19C577CC77F2D1B6C55A9EF3C732474C0B727303F625995056C3B02963D9EAC146BE78EC5FCEC7FA999EBC5EACBAAE41B12D27B4D2C0BBA49F244E2ECDC81B76B502F113D8F5EE8FB1BE3111CDD4FC2AA9B844CAB1288B68AB90A7CDC
310
1C166AB0D3DC5310625FCC14E779BFD0709F8890A629C9292B1B2DED31A4B0DA928CEE135085754027E3018A397D4D5427D15BD1330B677DC8934285AC3DF45A9EB68FF8F2B8FC0A509AFEECFD0FF2DE25CC6047F7214B195F07EFEB9A094D800F7BFAE8FED187B78EA8A3A400F115961BCAD1215E47C966530AF0EE8128FE
310
58CEBB996A8964FFA529A046635D9353B0336A8F700DDF46271A024E70B0B37C9DE01847591E54DED53D54202AB947E4076556AC49C6CA5C9E1226B7F1A7B1BE15DEED62C41B91E1B3E9AFAAA735036547343A925075041DF0A9979E893B391F8FCFA6967B3EFB644DCF6E5CEBFAE272625DCC6FAF3FB93793C5F90CE1EF57
310
407342756B10D1C489E8953CD1617E5CEECAD6F4EF8914CE5D5D504E5C3F1F9736DA62CFC11E00BCDDB8CC8A9466349744C1F75EBDA4DF09BA8A9E8C7A7E9991989E20E5DBDD6A6003664ED8F7A04A8DBE0DF6EAD9B9AA858342E47399053949D2C146EDB85DE4B176BB0965FBAC19BD19AA918E27FA50C1D22402E144464C
310
59462568E704B6E71915404CB72B8FF4EDE184DDAF753F284990D2C6926782963815403548A70C657FDEF80D2D9CEAA2AE4C1C76F60BFE74219A06527D6582DF6412526107381E55E353090704D085B52408D0933C4ED159D79BDA71BB4BC506F4831350EB6F979CD22D69BF7AC49B91A2C0A9DDA3D5CA36AD20FC478E37E6
310
1844E2352865EBCB6EA275A652E3836BE04EFB400BF1A2556F515F1FBB35B2AB35BD889C744FFA1004B5544B121E57F70215746DD2F5E2C1412B602CBF19455AC6C8E5E9922C4E01E65215385004546899059180EAFCF7A707CE7017CD8CDB0410789AB32C63B91E5CEBBBACB17AC6CD347A022D5075FD106377347AAABA7E
310
7D11590744509B44E205134DC1290F06580320F78E537D3D73540E06CB970B431F185308AD40BBD794D6D77003C5A36E8EAA54BA64597CD8F83BD552A080A365F7FF06504B0304140006080000CC70623B000000000000000000000000350000006662782F39464131463745442D413632322D343644302D413938332D3331
310
353338454246344243312F76657274696365732E62696E504B0304140006080800CC70623BF270F1330600000004000000360000006662782F39464131463745442D413632322D343644302D413938332D3331353338454246344243312F747269616E676C65732E62696E636660600000504B0304140006080000CC70623B
310
000000000000000000000000370000006662782F39464131463745442D413632322D343644302D413938332D3331353338454246344243312F617474726962757465732E62696E504B0304140006080800CC70623B08DA0BD19000000041010000360000006662782F39464131463745442D413632322D343644302D413938
310
332D3331353338454246344243312F6469726563746F72792E786D6C858F410AC3201045AF22B36F53E9A60B35CBEEBAE80D244E44489C6234F4F835464A48035D0DF398FF9F8AF63D0E6CC63039F212F8F9020C7D47C6792B21C5FE7403D62A1188E2E60C98D7234A5830286103A55745067B9D86B8A3CF9C7F90C11DE607
310
FB144396D7B6A82D282E9A152AD114D5EF2CB866EEE831B8EEA07A7BB5A8D7D61A2BAAEB7FD5F70921FF497D00504B0304140006080800CC70623B0D6EF93BFE000000A00100003B0000006662782F39464131463745442D413632322D343644302D413938332D3331353338454246344243312F7265736F75726365732F63
310
6F72652E786D6C8D50596E833010BD0A9ADFCA60B334011947A8694ED00B586642AC041B79A97AFC9A40A5F6AF3F33A3B7689E1E3F7DCD8FEC139DD7D6F4C0720A191A65476DA61E62B892236427C19DB5E1970C322367EC618541F0C9D9B8EC90B226A009093576C41D94DE63804C3DD2D18357379C652E63480A7FCF17A9
310
EE72C29CE5894E3AC17D702940B63D59270887DE46A7D0F36263058F518FBB468FE9A7BE6A7420864373B8D4873369AA8691FA421B3294352543C5CAF65C0F6FEF43CB8BD52C78D0F34F46E550061C419494B6843142CB0F5677F4B52BEB177AEC28E5C52AFF638ACBF84F53D42654E51E77B379102C05791282176B5F693D
310
CB4C7BED567C03504B010214000A0000080000CC70623B3DEE336E79000000790000001B00000000000000000000000000000000006175746F6465736B2D64657369676E2D7061636B6167652E786D6C504B01021400140006080800CC70623BD486FD9CA0000000F40000001300000000000000000000000000B20000005B
310
436F6E74656E745F54797065735D2E786D6C504B01021400140006080800CC70623B1EC5D7A3EB0000007C010000080000000000000000000000000083010000636F72652E786D6C504B01021400140006080800CC70623B55019EA25F0000007C000000070000000000000000000000000094020000636E782E786D6C504B
310
01021400140006080800CC70623B8C9102E971010000D40300000C00000000000000000000000000180300006662782F636F72652E786D6C504B01021400140006080800CC70623BFFEA85907E0000009D0000000B00000000000000000000000000B30400006662782F636E782E786D6C504B01021400140006080800CC70
310
623B4FEEA4082C0100001202000031000000000000000000000000005A0500006662782F39464131463745442D413632322D343644302D413938332D3331353338454246344243312F636F72652E786D6C504B01021400140006080800CC70623BAD7543B64E010000330300003000000000000000000000000000D5060000
310
6662782F39464131463745442D413632322D343644302D413938332D3331353338454246344243312F636E782E786D6C504B01021400140006080800CC70623B16AB87BA640500003C1000003400000000000000000000000000710800006662782F39464131463745442D413632322D343644302D413938332D3331353338
310
454246344243312F6F626A656374732E786D6C504B01021400140006080000CC70623B0000000000000000000000003500000000000000000000000000270E00006662782F39464131463745442D413632322D343644302D413938332D3331353338454246344243312F76657274696365732E62696E504B01021400140006
310
080800CC70623BF270F133060000000400000036000000000000000000000000007A0E00006662782F39464131463745442D413632322D343644302D413938332D3331353338454246344243312F747269616E676C65732E62696E504B01021400140006080000CC70623B0000000000000000000000003700000000000000
310
000000000000D40E00006662782F39464131463745442D413632322D343644302D413938332D3331353338454246344243312F617474726962757465732E62696E504B01021400140006080800CC70623B08DA0BD190000000410100003600000000000000000000000000290F00006662782F39464131463745442D413632
310
322D343644302D413938332D3331353338454246344243312F6469726563746F72792E786D6C504B01021400140006080800CC70623B0D6EF93BFE000000A00100003B000000000000000000000000000D1000006662782F39464131463745442D413632322D343644302D413938332D3331353338454246344243312F7265
310
736F75726365732F636F72652E786D6C504B0506000000000E000E0080040000641100000000
  0
XRECORD
  5
E
102
{ACAD_REACTORS
330
D
102
}
330
D
100
AcDbXrecord
280
     1
270
     1
271
     1
  0
XRECORD
  5
F
102
{ACAD_REACTORS
330
D
102
}
330
D
100
AcDbXrecord
280
     1
270
     1
271
     1
  0
XRECORD
  5
10
102
{ACAD_REACTORS
330
D
102
}
330
D
100
AcDbXrecord
280
     1
 70
     0
 90
1673772943
  1
ECE7A1D2-D628-4531-984C-D00F80459256
310
504B03040A0000080000CC70623B3DEE336E79000000790000001B0000006175746F6465736B2D64657369676E2D7061636B6167652E786D6C3C3F786D6C2076657273696F6E3D22312E302220656E636F64696E673D227574662D3822203F3E3C666F726D6174733E3C666F726D61743E687474703A2F2F736368656D612E
310
6175746F6465736B2E636F6D2F64657369676E2D7061636B6167652F323030393C2F666F726D61743E3C2F666F726D6174733E504B0304140006080800CC70623BD486FD9CA0000000F4000000130000005B436F6E74656E745F54797065735D2E786D6C7D8EC10E82300C865F65E91D8A1E8C310C0EEA1BF002731658846E
310
D98AC1B77784ABF1D8FE5FBFBF75BBCE937A534CCEB38643598122B6FEE978D0B0485F9C41B54DDD7D022595594E1A469170414C76A4D9A4D207E29CF43ECE46F218070CC6BECC4078ACAA135ACF422C856C0E68EA1BF5669944DDD7BCDE7B1F8E415D77AECB980613C2E4AC91FC167A2B244592486606FC29C8FD7F045B9A
310
EF7053A7E60B504B0304140006080800CC70623BD9DDAED0EC0000007C01000008000000636F72652E786D6C8D90416EC3201045AF82665B61836D9CD8C2444DD39CA01740405C94182C03558F5F9C3852BBEB6A467FFE9B197D7EF89E6EE8CB2CC17A37002D0820E394D7D68D03A478C17B4007C117EFE32F1B20272733C0
310
2A83E0E3E2D3BC49CABB685CCCAAF3DA6CA20CC14440EA969B0182FA34932C648AD911AEC52CD5558EA6A0CF2EC329598D1E47ACCEFBECC59A050463A7EA5833865FEBDD0E37353BE3EE8DBDE3F6786A48D375FBF6CC78B9C282473B3DEFABC5C86834888A900E538A49F5419B9EB47DD5BC907D4F082F57FB1F28CDFA9F50
310
B22ED6D5F6EE030B20687EE43E10BC5CB3C8E51E54AE6B6EE207504B0304140006080800CC70623B55019EA25F0000007C00000007000000636E782E786D6C4DCB3B0E80201045D1AD90E915ED2CF8AC45050C11660C8261F98AB1B07AC9C97D42D718D865D3E909258CFD00CCE24AC6E326A164D74DC0B4128928FF326038
310
472BA13128B1252AC747C6BAB984FC68F0B87FE8960A5C09FE86CFB69FBA01504B0304140006080800CC70623BA24EB22D72010000D40300000C0000006662782F636F72652E786D6CC5535B6E833010BC8AE5DF0A6C5E49888CA3A6694ED00B38E05014B091B1518EDFE511A5A9D228FD2A1F60CDEC7A67C6986DCE4D8D7A
310
69BA4AAB0C073EC548AA5C17952A33ECECD15B61B4E1CC686DBF9561A44423333CC098B3D268D7CE50AE9595CA02AA74216750749DB418E5352C32DCE59FB211BE70162ABA93DF8AFC244AE9073ED050C759670D0840D390E18DF9F1706664C23973AE2A66B62A605A75ACA4C13C4976E1364A12EF355A2EBD384AF65EFA96
310
BC7B8BED2EA6719AAE16FB8491A199335B351775B991C2CA02F390D2D40B028F861F41BCA68B7518BFD0D59A524686F29B26D7164F36B94AD9289CE54E6D1DE6010819891F6E21228B3AD1831EC219194284CF98F06DD01008846CC5A1BEF83801D4CBDC6A1303536877A57A513B0953A94FC707FDBE6064EA84A9E3E6E0FA
310
EE8CF0E9198F7784A316AA0413C2C2F2E0ECA0934D1AE6D05A69BCDE9E91D2A611F573361E38FC1375157F5752AE6B6DFE4B11990F88CCBF0719EE23FF02504B0304140006080800CC70623B408A7D3B7C0000009D0000000B0000006662782F636E782E786D6C4DCCD10A83201886E15B91FFDC552A92A0064DBC8F581632
310
D3703A76F9ABD1C18E3E78F878E5F0D9027ABBFCF2292AE86E2D20171F69F6715550CB827B40839639A5F2770314A7CD293819B45C73AAFB45B35BA61ACAA1C1C7E7855C58C15BC331339661262CC762340413D68D77DA5B42298546CBE6573AF60CEB2F504B0304140006080800CC70623B449FB9BD290100001202000031
310
0000006662782F36394639363044362D344446342D343946362D394244322D3234314243333846323333332F636F72652E786D6C8D515B6EC32010BC0AE22B55850D98B871848994463E412FE002495162B07854397EA176A4F62F3F2C9A9D991D587EB84F37F0AD7D30CEF6905418026DA553C65E7A98E219ED203808EE9D
310
8B7F6810D871D23D2C3014FCE25D9A57483A1BB58D19B54EE9151C43D0110279CB971E06F9A5A7B11A53CC8C70ADE6515EC78BAE4895DB992778883E0700CB907242D17643D7E2538BD869608875438BBAE38922CAC8F1BDD90DB4691A5E2F42C153326A951B95E398B3D1FE599322163C9AE9115F7A3D46ADA0A018778810
310
84E907617BDCEE297BC5BB3DC6BC2EF47FA234AB2745C9D8D8D035EE220B50105E2F0DC1954B9FB747187D9F9D8FA0CCDB042D5FA0C015C65B42DF78BD10F3F3B363CB56C7109DCFDFBBB97E662ED92EB62D13BC2E1BCAE5777DB9966D8A1F504B0304140006080800CC70623BAD7543B64E01000033030000300000006662
310
782F36394639363044362D344446342D343946362D394244322D3234314243333846323333332F636E782E786D6CD593CD6EC32010845F0571AD6CE3D48AD20813A9873E410FBD12D82434182C7EAAE6EDBB2424CD25871E7B41D6EC30B3FA84F9E67BB2E40B4234DE8DB46F1925E094D7C6ED479AD3AE5951B2113C789FEE
310
6C943839C1488B4C05DF079FE72A69D8C96C13AAD6B8631503449F83828872B949AC57D26200B826A308D316B4064D6E46FCDA41C05550DC9E483A00797BFD207EFB092A45DE9514C1BBD22178396BD39D891265658C238DEA00936C654E5E433CB65A26D9F6EDB5EBC14EBF49A45CB856E66048291F6939A9A81BB5C89177
310
38143CA680F4AA299D66A042CEB3354A2684DC9D8D178FE0D9B8B41CAAD720F880EE7EF93C0C18769E099ECC04D5A102C8049A8A05632F4DDF376CF1DE0F6BB65C2F8627B65A33C6BB62177CEBBDAD973006829F89F22E814B54F4BC2BE347F8AA8F681390B50FA73F804400B5F542E796F19FF974E7F78DB802FE05E20750
310
4B0304140006080800CC70623B8D05915C650500003B100000340000006662782F36394639363044362D344446342D343946362D394244322D3234314243333846323333332F6F626A656374732E786D6CAD575B6FA33814FE2B887D06429276DA1565D4266D158D3A339A6846FB502932E050B66023DB74D2FDF5FB190C01
310
9276B2973C046C8ECFF53B17071F77456EBD502133CEAE6CDF9DD81665314F32965ED995DA3A17B6F5310C04E7AA47665B8C14F4CAD6DB7618A48257A5D94AE89654B91AEDDEDDFC61C998326A5B714EA4BCB265FC440BE2924AF184CA6737218AB8E976E7FA6E4338649B0A523E8D98964450A6A029F619B8588D52FE7039
310
B1BD30F0F4F730D0FF866AF6369557DB33949F31A9088B0F848DD8CCFCF9F2767A76E99CCDE733677E3EF59D9BBB9BA5E37F984D16E78BC5E5F5ED25044B25C0C96822E8D60EEFE11B91C581D77CEA34368A1F5329E68CD1B8B61F16D63A1B8E092D294B10C78C4A48EB593D192E7DED9BDEE7995E1B91FDEDD3ACEA9FE831
310
6A756F9F7D4D79F4274C90A7A04248AA51D5F8C718DAE06FB2F75AC4796EBE65D22A88A22223B995679120E2D50E41AA49C260C046A35368846B0BECD0DFF3EBEB8AD4F835768F69B9ADF25C43D30E6B646F807FAA64AD59F61715C7A54127C4AACA98BA3006A9D792DAE165E0D59B61A01FB3A9F9D838D2DAE62445C86166
310
F37564E842E7DE6A69879FEEA2DD5AE7E371E1A5E025154AC307D06A03D73EB5978C58FFA4C8E9033066E0F3BD53BEC1F39F91BE7B55103791EDE6BBB991A2046172CB4581D8B893FA674DDA17A77B3B7C413D1B511FD2743BFF8A38F03A658705E3ADF8015C3A3417FF3D7E439FF591DA0B5F18BC20C1B8981957AE6392A3
310
F43C640C01D1A0B4728E2DD4F26DB4B3C3152A252A3B4E913CEC1C72F012782FF88EFF8637AA552DBEF76408E8A8DE9E50F9E1CB3A2DA0DB1B6039A893B56063DC5B3E3FFB5F72E67AB9FEB4AEC496C4F4C1149625DD662C53E89D7BF0F6151A046260D1337DFDC94502430F83B0EE07A130A224BCAD7DAE1D9FB6CD422FF6
310
920702629C4BB9AE79C12F243C6432A6794E18E5552BA56B431AAB5D91317302B2B071E86C3A42B1A02F999E24061403B5D0EB639195DA655DD3EBEAB4FB862DDF579F014AD0E73C22F99E28DA57FB98E75C6CA2D74D53086D600F4786E0FE3144B771A8A7B900F03594DB8A633CBC49B2EDB69228BB479CF863B5E807AAAB
310
23872F6DFEB4129B949CA33823F58830E86D65621E10047D9DB34D862E8EAC3C2ABC2F7B2C40D67CDFE01F5545B92105AF983AC54D93D69E56FB8E797F88913F898A9FEC705D3F9D1B54EC8426FB500D40A03BD0119B06E1B95DDC7EB8F6975367793EBD70E66733DFB9BC982F9CE564727731999F5D4ECFCE3B8D6A4DC2A0
310
6D50FD148437D110834A64C6CDDF57FBACB5C307A2A477DFE4939736CFEF2B175371E0E10CF0DD1D5C15654E0BCA14D1E87DD02FF93782A162C0A3D95F1524A52770F972BF1EE9809D13CE7DD599467F8ECE9ADD85CE85A34CD45355448C64F9E8A031DC2D596ACC6E5DD93D9B82DE2EF5CAF81363A8E47996A0DE24564A79
310
4115AACE09C55E14540231FDA13C319787134EBF34E3A022514E5B4D9E0826E25C02D5805B15ABE1BEF51B26383D445DD9E875EE33FE4C22DA16427D65A3BCA92CA6D28DD01DF5DC53330704308475351050232CCD31583787BA75774AFB06E5070DD0C8EF484E19968C5D83BA5B90B244D31E54D55A372320FE4786B7EA58
310
44E135AA5467CB7EA333A61683CC6A8C3257034C10CF46F40EF9F5BE59BE5BD30C3C72D235E95D10345C1D45445A5F0BB47E46A5EBE5570F9380B5FA629579952296A773720405982B9DE04011506178964401AA8BDF1FBF0A8EAB6861DD6580C0E38217056766716DAEB2D6FA0917D3E4116581EADB879C4E7CFFB11EFACD
310
3D641311495D92C8676CB409A72D18610D803CE8A626049E8EC1887CB5B44CC39883690DDA8399B4B9855B481E7D71D4A9D22F96E5BB73BF5793020C02137BF837504B0304140006080000CC70623B000000000000000000000000350000006662782F36394639363044362D344446342D343946362D394244322D32343142
310
43333846323333332F76657274696365732E62696E504B0304140006080800CC70623BF270F1330600000004000000360000006662782F36394639363044362D344446342D343946362D394244322D3234314243333846323333332F747269616E676C65732E62696E636660600000504B0304140006080000CC70623B0000
310
00000000000000000000370000006662782F36394639363044362D344446342D343946362D394244322D3234314243333846323333332F617474726962757465732E62696E504B0304140006080800CC70623B08DA0BD19000000041010000360000006662782F36394639363044362D344446342D343946362D394244322D
310
3234314243333846323333332F6469726563746F72792E786D6C858F410AC3201045AF22B36F53E9A60B35CBEEBAE80D244E44489C6234F4F835464A48035D0DF398FF9F8AF63D0E6CC63039F212F8F9020C7D47C6792B21C5FE7403D62A1188E2E60C98D7234A5830286103A55745067B9D86B8A3CF9C7F90C11DE607FB14
310
4396D7B6A82D282E9A152AD114D5EF2CB866EEE831B8EEA07A7BB5A8D7D61A2BAAEB7FD5F70921FF497D00504B0304140006080800CC70623BCA768048FE000000A00100003B0000006662782F36394639363044362D344446342D343946362D394244322D3234314243333846323333332F7265736F75726365732F636F72
310
652E786D6C8D50596E833010BD0A9ADFCA60D600328E9AA639412F609909B1126CE4A5EAF16B0295DABFFECC8CDEA2797AECF8353F924FB44E193D409E5248504B332A3D0D10FC95B4901C39B3C6F85F3248B49871801506CE266BC2B243D2688FDA47549B11775038871E12F988C7004EDE7016A9083E2ADC3D5D84BC8B09
310
D33C8D74D471E6BC8D0192EDC93A815B742658898E651BCB59086ADC356A8C3FD555A1055ED7E7E254D615792D0F075295F585746FF53B694EE78A565DD736979A65AB9933AFE69F8CD2A2F038022F28ED489E135A7CE4554F9BBEA85E68DB53CAB255FEC71496F19FA6A0B42F8B3DEE6673C0F318E4497096AD7DC5F52C33
310
EEB55BFE0D504B010214000A0000080000CC70623B3DEE336E79000000790000001B00000000000000000000000000000000006175746F6465736B2D64657369676E2D7061636B6167652E786D6C504B01021400140006080800CC70623BD486FD9CA0000000F40000001300000000000000000000000000B20000005B436F
310
6E74656E745F54797065735D2E786D6C504B01021400140006080800CC70623BD9DDAED0EC0000007C010000080000000000000000000000000083010000636F72652E786D6C504B01021400140006080800CC70623B55019EA25F0000007C000000070000000000000000000000000095020000636E782E786D6C504B0102
310
1400140006080800CC70623BA24EB22D72010000D40300000C00000000000000000000000000190300006662782F636F72652E786D6C504B01021400140006080800CC70623B408A7D3B7C0000009D0000000B00000000000000000000000000B50400006662782F636E782E786D6C504B01021400140006080800CC70623B
310
449FB9BD290100001202000031000000000000000000000000005A0500006662782F36394639363044362D344446342D343946362D394244322D3234314243333846323333332F636F72652E786D6C504B01021400140006080800CC70623BAD7543B64E010000330300003000000000000000000000000000D20600006662
310
782F36394639363044362D344446342D343946362D394244322D3234314243333846323333332F636E782E786D6C504B01021400140006080800CC70623B8D05915C650500003B10000034000000000000000000000000006E0800006662782F36394639363044362D344446342D343946362D394244322D32343142433338
310
46323333332F6F626A656374732E786D6C504B01021400140006080000CC70623B0000000000000000000000003500000000000000000000000000250E00006662782F36394639363044362D344446342D343946362D394244322D3234314243333846323333332F76657274696365732E62696E504B010214001400060808
310
00CC70623BF270F13306000000040000003600000000000000000000000000780E00006662782F36394639363044362D344446342D343946362D394244322D3234314243333846323333332F747269616E676C65732E62696E504B01021400140006080000CC70623B00000000000000000000000037000000000000000000
310
00000000D20E00006662782F36394639363044362D344446342D343946362D394244322D3234314243333846323333332F617474726962757465732E62696E504B01021400140006080800CC70623B08DA0BD190000000410100003600000000000000000000000000270F00006662782F36394639363044362D344446342D
310
343946362D394244322D3234314243333846323333332F6469726563746F72792E786D6C504B01021400140006080800CC70623BCA768048FE000000A00100003B000000000000000000000000000B1000006662782F36394639363044362D344446342D343946362D394244322D3234314243333846323333332F7265736F
310
75726365732F636F72652E786D6C504B0506000000000E000E0080040000621100000000
  0
XRECORD
  5
11
102
{ACAD_REACTORS
330
D
102
}
330
D
100
AcDbXrecord
280
     1
270
     1
271
     1
  0
XRECORD
  5
12
102
{ACAD_REACTORS
330
D
102
}
330
D
100
AcDbXrecord
280
     1
270
     1
271
     1
  0
CELLSTYLEMAP
  5
A6
102
{ACAD_REACTORS
330
4F
102
}
330
4F
100
AcDbCellStyleMap
 90
        3
300
CELLSTYLE
  1
TABLEFORMAT_BEGIN
 90
        5
170
     1
 91
        0
 92
    32768
 62
   257
 93
        1
300
CONTENTFORMAT
  1
CONTENTFORMAT_BEGIN
 90
        0
 91
        0
 92
      512
 93
        0
300

 40
0.0
140
1.0
 94
        5
 62
     0
340
22
144
6.0
309
CONTENTFORMAT_END
171
     1
301
MARGIN
  1
CELLMARGIN_BEGIN
 40
1.5
 40
1.5
 40
1.5
 40
1.5
 40
0.18
 40
0.18
309
CELLMARGIN_END
 94
        6
 95
        1
302
GRIDFORMAT
  1
GRIDFORMAT_BEGIN
 90
        0
 91
        1
 62
     0
 92
       -2
340
25
 93
        0
 40
1.125
309
GRIDFORMAT_END
 95
        2
302
GRIDFORMAT
  1
GRIDFORMAT_BEGIN
 90
        0
 91
        1
 62
     0
 92
       -2
340
25
 93
        0
 40
1.125
309
GRIDFORMAT_END
 95
        4
302
GRIDFORMAT
  1
GRIDFORMAT_BEGIN
 90
        0
 91
        1
 62
     0
 92
       -2
340
25
 93
        0
 40
1.125
309
GRIDFORMAT_END
 95
        8
302
GRIDFORMAT
  1
GRIDFORMAT_BEGIN
 90
        0
 91
        1
 62
     0
 92
       -2
340
25
 93
        0
 40
1.125
309
GRIDFORMAT_END
 95
       16
302
GRIDFORMAT
  1
GRIDFORMAT_BEGIN
 90
        0
 91
        1
 62
     0
 92
       -2
340
25
 93
        0
 40
1.125
309
GRIDFORMAT_END
 95
       32
302
GRIDFORMAT
  1
GRIDFORMAT_BEGIN
 90
        0
 91
        1
 62
     0
 92
       -2
340
25
 93
        0
 40
1.125
309
GRIDFORMAT_END
309
TABLEFORMAT_END
  1
CELLSTYLE_BEGIN
 90
        1
 91
        1
300
_TITLE
309
CELLSTYLE_END
300
CELLSTYLE
  1
TABLEFORMAT_BEGIN
 90
        5
170
     1
 91
        0
 92
        0
 62
   257
 93
        1
300
CONTENTFORMAT
  1
CONTENTFORMAT_BEGIN
 90
        0
 91
        0
 92
      512
 93
        0
300

 40
0.0
140
1.0
 94
        5
 62
     0
340
22
144
4.5
309
CONTENTFORMAT_END
171
     1
301
MARGIN
  1
CELLMARGIN_BEGIN
 40
1.5
 40
1.5
 40
1.5
 40
1.5
 40
0.18
 40
0.18
309
CELLMARGIN_END
 94
        6
 95
        1
302
GRIDFORMAT
  1
GRIDFORMAT_BEGIN
 90
        0
 91
        1
 62
     0
 92
       -2
340
25
 93
        0
 40
1.125
309
GRIDFORMAT_END
 95
        2
302
GRIDFORMAT
  1
GRIDFORMAT_BEGIN
 90
        0
 91
        1
 62
     0
 92
       -2
340
25
 93
        0
 40
1.125
309
GRIDFORMAT_END
 95
        4
302
GRIDFORMAT
  1
GRIDFORMAT_BEGIN
 90
        0
 91
        1
 62
     0
 92
       -2
340
25
 93
        0
 40
1.125
309
GRIDFORMAT_END
 95
        8
302
GRIDFORMAT
  1
GRIDFORMAT_BEGIN
 90
        0
 91
        1
 62
     0
 92
       -2
340
25
 93
        0
 40
1.125
309
GRIDFORMAT_END
 95
       16
302
GRIDFORMAT
  1
GRIDFORMAT_BEGIN
 90
        0
 91
        1
 62
     0
 92
       -2
340
25
 93
        0
 40
1.125
309
GRIDFORMAT_END
 95
       32
302
GRIDFORMAT
  1
GRIDFORMAT_BEGIN
 90
        0
 91
        1
 62
     0
 92
       -2
340
25
 93
        0
 40
1.125
309
GRIDFORMAT_END
309
TABLEFORMAT_END
  1
CELLSTYLE_BEGIN
 90
        2
 91
        1
300
_HEADER
309
CELLSTYLE_END
300
CELLSTYLE
  1
TABLEFORMAT_BEGIN
 90
        5
170
     1
 91
        0
 92
        0
 62
   257
 93
        1
300
CONTENTFORMAT
  1
CONTENTFORMAT_BEGIN
 90
        0
 91
        0
 92
      512
 93
        0
300

 40
0.0
140
1.0
 94
        2
 62
     0
340
22
144
4.5
309
CONTENTFORMAT_END
171
     1
301
MARGIN
  1
CELLMARGIN_BEGIN
 40
1.5
 40
1.5
 40
1.5
 40
1.5
 40
0.18
 40
0.18
309
CELLMARGIN_END
 94
        6
 95
        1
302
GRIDFORMAT
  1
GRIDFORMAT_BEGIN
 90
        0
 91
        1
 62
     0
 92
       -2
340
25
 93
        0
 40
1.125
309
GRIDFORMAT_END
 95
        2
302
GRIDFORMAT
  1
GRIDFORMAT_BEGIN
 90
        0
 91
        1
 62
     0
 92
       -2
340
25
 93
        0
 40
1.125
309
GRIDFORMAT_END
 95
        4
302
GRIDFORMAT
  1
GRIDFORMAT_BEGIN
 90
        0
 91
        1
 62
     0
 92
       -2
340
25
 93
        0
 40
1.125
309
GRIDFORMAT_END
 95
        8
302
GRIDFORMAT
  1
GRIDFORMAT_BEGIN
 90
        0
 91
        1
 62
     0
 92
       -2
340
25
 93
        0
 40
1.125
309
GRIDFORMAT_END
 95
       16
302
GRIDFORMAT
  1
GRIDFORMAT_BEGIN
 90
        0
 91
        1
 62
     0
 92
       -2
340
25
 93
        0
 40
1.125
309
GRIDFORMAT_END
 95
       32
302
GRIDFORMAT
  1
GRIDFORMAT_BEGIN
 90
        0
 91
        1
 62
     0
 92
       -2
340
25
 93
        0
 40
1.125
309
GRIDFORMAT_END
309
TABLEFORMAT_END
  1
CELLSTYLE_BEGIN
 90
        3
 91
        2
300
_DATA
309
CELLSTYLE_END
  0
ENDSEC
  0
EOF
