0
SECTION
2
HEADER
9
$ACADVER
1
AC1003
9
$EXTMIN
10
0.000000
20
0.000000
9
$EXTMAX
10
719.000000
20
711.000000
9
$LIMMIN
10
0.000000
20
0.000000
9
$LIMMAX
10
719.000000
20
711.000000
0
ENDSEC
0
SECTION
2
TABLES
0
TABLE
2
LAYER
70
1
0
LAYER
2
0
70
64
62
3
6
CONTINUOUS
0
ENDTAB
0
ENDSEC
0
SECTION
2
BLOCKS
0
ENDSEC
0
SECTION
2
ENTITIES
0
POLYLINE
8
0
6
CONTINUOUS
66
1
10
0.0
20
0.0
30
0.000000
0
VERTEX
8
0
10
9.000000
20
694.000000
30
0.000000
0
VERTEX
8
0
10
10.000000
20
695.000000
30
0.000000
0
VERTEX
8
0
10
11.000000
20
701.000000
30
0.000000
0
VERTEX
8
0
10
9.000000
20
694.000000
30
0.000000
0
SEQEND
0
POLYLINE
8
0
6
CONTINUOUS
66
1
10
0.0
20
0.0
30
0.000000
0
VERTEX
8
0
10
332.000000
20
694.000000
30
0.000000
0
VERTEX
8
0
10
375.000000
20
694.000000
30
0.000000
0
VERTEX
8
0
10
401.000000
20
692.000000
30
0.000000
0
VERTEX
8
0
10
452.000000
20
682.000000
30
0.000000
0
VERTEX
8
0
10
485.000000
20
671.000000
30
0.000000
0
VERTEX
8
0
10
519.000000
20
656.000000
30
0.000000
0
VERTEX
8
0
10
550.000000
20
638.000000
30
0.000000
0
VERTEX
8
0
10
577.000000
20
618.000000
30
0.000000
0
VERTEX
8
0
10
605.000000
20
591.000000
30
0.000000
0
VERTEX
8
0
10
626.000000
20
568.000000
30
0.000000
0
VERTEX
8
0
10
639.000000
20
551.000000
30
0.000000
0
VERTEX
8
0
10
651.000000
20
531.000000
30
0.000000
0
VERTEX
8
0
10
672.000000
20
489.000000
30
0.000000
0
VERTEX
8
0
10
682.000000
20
463.000000
30
0.000000
0
VERTEX
8
0
10
693.000000
20
423.000000
30
0.000000
0
VERTEX
8
0
10
696.000000
20
404.000000
30
0.000000
0
VERTEX
8
0
10
699.000000
20
363.000000
30
0.000000
0
VERTEX
8
0
10
698.000000
20
327.000000
30
0.000000
0
VERTEX
8
0
10
689.000000
20
278.000000
30
0.000000
0
VERTEX
8
0
10
678.000000
20
241.000000
30
0.000000
0
VERTEX
8
0
10
655.000000
20
191.000000
30
0.000000
0
VERTEX
8
0
10
637.000000
20
163.000000
30
0.000000
0
VERTEX
8
0
10
611.000000
20
129.000000
30
0.000000
0
VERTEX
8
0
10
568.000000
20
90.000000
30
0.000000
0
VERTEX
8
0
10
545.000000
20
74.000000
30
0.000000
0
VERTEX
8
0
10
518.000000
20
59.000000
30
0.000000
0
VERTEX
8
0
10
506.000000
20
54.000000
30
0.000000
0
VERTEX
8
0
10
501.000000
20
54.000000
30
0.000000
0
VERTEX
8
0
10
501.000000
20
52.000000
30
0.000000
0
VERTEX
8
0
10
496.000000
20
50.000000
30
0.000000
0
VERTEX
8
0
10
499.000000
20
55.000000
30
0.000000
0
VERTEX
8
0
10
497.000000
20
56.000000
30
0.000000
0
VERTEX
8
0
10
491.000000
20
47.000000
30
0.000000
0
VERTEX
8
0
10
489.000000
20
47.000000
30
0.000000
0
VERTEX
8
0
10
486.000000
20
52.000000
30
0.000000
0
VERTEX
8
0
10
485.000000
20
49.000000
30
0.000000
0
VERTEX
8
0
10
487.000000
20
46.000000
30
0.000000
0
VERTEX
8
0
10
483.000000
20
44.000000
30
0.000000
0
VERTEX
8
0
10
483.000000
20
55.000000
30
0.000000
0
VERTEX
8
0
10
480.000000
20
55.000000
30
0.000000
0
VERTEX
8
0
10
480.000000
20
43.000000
30
0.000000
0
VERTEX
8
0
10
437.000000
20
29.000000
30
0.000000
0
VERTEX
8
0
10
395.000000
20
22.000000
30
0.000000
0
VERTEX
8
0
10
359.000000
20
22.000000
30
0.000000
0
VERTEX
8
0
10
326.000000
20
24.000000
30
0.000000
0
VERTEX
8
0
10
293.000000
20
29.000000
30
0.000000
0
VERTEX
8
0
10
247.000000
20
41.000000
30
0.000000
0
VERTEX
8
0
10
242.000000
20
44.000000
30
0.000000
0
VERTEX
8
0
10
210.000000
20
55.000000
30
0.000000
0
VERTEX
8
0
10
184.000000
20
68.000000
30
0.000000
0
VERTEX
8
0
10
152.000000
20
89.000000
30
0.000000
0
VERTEX
8
0
10
124.000000
20
114.000000
30
0.000000
0
VERTEX
8
0
10
94.000000
20
147.000000
30
0.000000
0
VERTEX
8
0
10
69.000000
20
186.000000
30
0.000000
0
VERTEX
8
0
10
51.000000
20
223.000000
30
0.000000
0
VERTEX
8
0
10
37.000000
20
262.000000
30
0.000000
0
VERTEX
8
0
10
29.000000
20
296.000000
30
0.000000
0
VERTEX
8
0
10
25.000000
20
328.000000
30
0.000000
0
VERTEX
8
0
10
26.000000
20
396.000000
30
0.000000
0
VERTEX
8
0
10
28.000000
20
400.000000
30
0.000000
0
VERTEX
8
0
10
30.000000
20
420.000000
30
0.000000
0
VERTEX
8
0
10
45.000000
20
472.000000
30
0.000000
0
VERTEX
8
0
10
67.000000
20
521.000000
30
0.000000
0
VERTEX
8
0
10
98.000000
20
569.000000
30
0.000000
0
VERTEX
8
0
10
120.000000
20
594.000000
30
0.000000
0
VERTEX
8
0
10
146.000000
20
618.000000
30
0.000000
0
VERTEX
8
0
10
184.000000
20
647.000000
30
0.000000
0
VERTEX
8
0
10
232.000000
20
671.000000
30
0.000000
0
VERTEX
8
0
10
275.000000
20
686.000000
30
0.000000
0
VERTEX
8
0
10
299.000000
20
691.000000
30
0.000000
0
VERTEX
8
0
10
332.000000
20
694.000000
30
0.000000
0
SEQEND
0
POLYLINE
8
0
6
CONTINUOUS
66
1
10
0.0
20
0.0
30
0.000000
0
VERTEX
8
0
10
351.000000
20
672.000000
30
0.000000
0
VERTEX
8
0
10
350.000000
20
673.000000
30
0.000000
0
VERTEX
8
0
10
303.000000
20
669.000000
30
0.000000
0
VERTEX
8
0
10
261.000000
20
659.000000
30
0.000000
0
VERTEX
8
0
10
231.000000
20
648.000000
30
0.000000
0
VERTEX
8
0
10
206.000000
20
635.000000
30
0.000000
0
VERTEX
8
0
10
176.000000
20
615.000000
30
0.000000
0
VERTEX
8
0
10
170.000000
20
609.000000
30
0.000000
0
VERTEX
8
0
10
176.000000
20
605.000000
30
0.000000
0
VERTEX
8
0
10
183.000000
20
614.000000
30
0.000000
0
VERTEX
8
0
10
193.000000
20
620.000000
30
0.000000
0
VERTEX
8
0
10
208.000000
20
620.000000
30
0.000000
0
VERTEX
8
0
10
219.000000
20
614.000000
30
0.000000
0
VERTEX
8
0
10
226.000000
20
606.000000
30
0.000000
0
VERTEX
8
0
10
234.000000
20
610.000000
30
0.000000
0
VERTEX
8
0
10
251.000000
20
610.000000
30
0.000000
0
VERTEX
8
0
10
261.000000
20
604.000000
30
0.000000
0
VERTEX
8
0
10
288.000000
20
580.000000
30
0.000000
0
VERTEX
8
0
10
296.000000
20
577.000000
30
0.000000
0
VERTEX
8
0
10
306.000000
20
577.000000
30
0.000000
0
VERTEX
8
0
10
310.000000
20
582.000000
30
0.000000
0
VERTEX
8
0
10
310.000000
20
585.000000
30
0.000000
0
VERTEX
8
0
10
303.000000
20
596.000000
30
0.000000
0
VERTEX
8
0
10
311.000000
20
606.000000
30
0.000000
0
VERTEX
8
0
10
310.000000
20
613.000000
30
0.000000
0
VERTEX
8
0
10
317.000000
20
622.000000
30
0.000000
0
VERTEX
8
0
10
315.000000
20
631.000000
30
0.000000
0
VERTEX
8
0
10
324.000000
20
644.000000
30
0.000000
0
VERTEX
8
0
10
332.000000
20
644.000000
30
0.000000
0
VERTEX
8
0
10
339.000000
20
650.000000
30
0.000000
0
VERTEX
8
0
10
352.000000
20
669.000000
30
0.000000
0
VERTEX
8
0
10
351.000000
20
672.000000
30
0.000000
0
SEQEND
0
POLYLINE
8
0
6
CONTINUOUS
66
1
10
0.0
20
0.0
30
0.000000
0
VERTEX
8
0
10
376.000000
20
672.000000
30
0.000000
0
VERTEX
8
0
10
375.000000
20
673.000000
30
0.000000
0
VERTEX
8
0
10
362.000000
20
673.000000
30
0.000000
0
VERTEX
8
0
10
358.000000
20
671.000000
30
0.000000
0
VERTEX
8
0
10
356.000000
20
667.000000
30
0.000000
0
VERTEX
8
0
10
370.000000
20
646.000000
30
0.000000
0
VERTEX
8
0
10
383.000000
20
644.000000
30
0.000000
0
VERTEX
8
0
10
385.000000
20
636.000000
30
0.000000
0
VERTEX
8
0
10
393.000000
20
628.000000
30
0.000000
0
VERTEX
8
0
10
389.000000
20
621.000000
30
0.000000
0
VERTEX
8
0
10
397.000000
20
612.000000
30
0.000000
0
VERTEX
8
0
10
396.000000
20
604.000000
30
0.000000
0
VERTEX
8
0
10
399.000000
20
601.000000
30
0.000000
0
VERTEX
8
0
10
412.000000
20
616.000000
30
0.000000
0
VERTEX
8
0
10
416.000000
20
618.000000
30
0.000000
0
VERTEX
8
0
10
426.000000
20
619.000000
30
0.000000
0
VERTEX
8
0
10
433.000000
20
617.000000
30
0.000000
0
VERTEX
8
0
10
450.000000
20
631.000000
30
0.000000
0
VERTEX
8
0
10
456.000000
20
633.000000
30
0.000000
0
VERTEX
8
0
10
468.000000
20
633.000000
30
0.000000
0
VERTEX
8
0
10
478.000000
20
628.000000
30
0.000000
0
VERTEX
8
0
10
483.000000
20
623.000000
30
0.000000
0
VERTEX
8
0
10
492.000000
20
623.000000
30
0.000000
0
VERTEX
8
0
10
497.000000
20
625.000000
30
0.000000
0
VERTEX
8
0
10
511.000000
20
624.000000
30
0.000000
0
VERTEX
8
0
10
522.000000
20
618.000000
30
0.000000
0
VERTEX
8
0
10
532.000000
20
607.000000
30
0.000000
0
VERTEX
8
0
10
544.000000
20
599.000000
30
0.000000
0
VERTEX
8
0
10
559.000000
20
598.000000
30
0.000000
0
VERTEX
8
0
10
561.000000
20
600.000000
30
0.000000
0
VERTEX
8
0
10
547.000000
20
612.000000
30
0.000000
0
VERTEX
8
0
10
527.000000
20
626.000000
30
0.000000
0
VERTEX
8
0
10
488.000000
20
646.000000
30
0.000000
0
VERTEX
8
0
10
440.000000
20
663.000000
30
0.000000
0
VERTEX
8
0
10
416.000000
20
668.000000
30
0.000000
0
VERTEX
8
0
10
376.000000
20
672.000000
30
0.000000
0
SEQEND
0
POLYLINE
8
0
6
CONTINUOUS
66
1
10
0.0
20
0.0
30
0.000000
0
VERTEX
8
0
10
354.000000
20
661.000000
30
0.000000
0
VERTEX
8
0
10
353.000000
20
662.000000
30
0.000000
0
VERTEX
8
0
10
344.000000
20
651.000000
30
0.000000
0
VERTEX
8
0
10
342.000000
20
647.000000
30
0.000000
0
VERTEX
8
0
10
344.000000
20
645.000000
30
0.000000
0
VERTEX
8
0
10
359.000000
20
644.000000
30
0.000000
0
VERTEX
8
0
10
363.000000
20
646.000000
30
0.000000
0
VERTEX
8
0
10
363.000000
20
649.000000
30
0.000000
0
VERTEX
8
0
10
354.000000
20
661.000000
30
0.000000
0
SEQEND
0
POLYLINE
8
0
6
CONTINUOUS
66
1
10
0.0
20
0.0
30
0.000000
0
VERTEX
8
0
10
379.000000
20
638.000000
30
0.000000
0
VERTEX
8
0
10
378.000000
20
639.000000
30
0.000000
0
VERTEX
8
0
10
326.000000
20
639.000000
30
0.000000
0
VERTEX
8
0
10
325.000000
20
637.000000
30
0.000000
0
VERTEX
8
0
10
328.000000
20
635.000000
30
0.000000
0
VERTEX
8
0
10
378.000000
20
635.000000
30
0.000000
0
VERTEX
8
0
10
379.000000
20
638.000000
30
0.000000
0
SEQEND
0
POLYLINE
8
0
6
CONTINUOUS
66
1
10
0.0
20
0.0
30
0.000000
0
VERTEX
8
0
10
465.000000
20
624.000000
30
0.000000
0
VERTEX
8
0
10
464.000000
20
625.000000
30
0.000000
0
VERTEX
8
0
10
453.000000
20
625.000000
30
0.000000
0
VERTEX
8
0
10
449.000000
20
623.000000
30
0.000000
0
VERTEX
8
0
10
440.000000
20
613.000000
30
0.000000
0
VERTEX
8
0
10
439.000000
20
604.000000
30
0.000000
0
VERTEX
8
0
10
441.000000
20
599.000000
30
0.000000
0
VERTEX
8
0
10
449.000000
20
592.000000
30
0.000000
0
VERTEX
8
0
10
457.000000
20
592.000000
30
0.000000
0
VERTEX
8
0
10
464.000000
20
597.000000
30
0.000000
0
VERTEX
8
0
10
465.000000
20
605.000000
30
0.000000
0
VERTEX
8
0
10
462.000000
20
608.000000
30
0.000000
0
VERTEX
8
0
10
458.000000
20
608.000000
30
0.000000
0
VERTEX
8
0
10
454.000000
20
603.000000
30
0.000000
0
VERTEX
8
0
10
450.000000
20
605.000000
30
0.000000
0
VERTEX
8
0
10
452.000000
20
612.000000
30
0.000000
0
VERTEX
8
0
10
455.000000
20
615.000000
30
0.000000
0
VERTEX
8
0
10
463.000000
20
615.000000
30
0.000000
0
VERTEX
8
0
10
469.000000
20
611.000000
30
0.000000
0
VERTEX
8
0
10
471.000000
20
607.000000
30
0.000000
0
VERTEX
8
0
10
471.000000
20
598.000000
30
0.000000
0
VERTEX
8
0
10
465.000000
20
589.000000
30
0.000000
0
VERTEX
8
0
10
459.000000
20
586.000000
30
0.000000
0
VERTEX
8
0
10
448.000000
20
586.000000
30
0.000000
0
VERTEX
8
0
10
444.000000
20
588.000000
30
0.000000
0
VERTEX
8
0
10
436.000000
20
596.000000
30
0.000000
0
VERTEX
8
0
10
434.000000
20
605.000000
30
0.000000
0
VERTEX
8
0
10
428.000000
20
610.000000
30
0.000000
0
VERTEX
8
0
10
416.000000
20
610.000000
30
0.000000
0
VERTEX
8
0
10
411.000000
20
606.000000
30
0.000000
0
VERTEX
8
0
10
408.000000
20
601.000000
30
0.000000
0
VERTEX
8
0
10
409.000000
20
592.000000
30
0.000000
0
VERTEX
8
0
10
415.000000
20
587.000000
30
0.000000
0
VERTEX
8
0
10
421.000000
20
587.000000
30
0.000000
0
VERTEX
8
0
10
425.000000
20
590.000000
30
0.000000
0
VERTEX
8
0
10
425.000000
20
594.000000
30
0.000000
0
VERTEX
8
0
10
423.000000
20
596.000000
30
0.000000
0
VERTEX
8
0
10
417.000000
20
595.000000
30
0.000000
0
VERTEX
8
0
10
416.000000
20
600.000000
30
0.000000
0
VERTEX
8
0
10
423.000000
20
602.000000
30
0.000000
0
VERTEX
8
0
10
427.000000
20
601.000000
30
0.000000
0
VERTEX
8
0
10
432.000000
20
594.000000
30
0.000000
0
VERTEX
8
0
10
432.000000
20
590.000000
30
0.000000
0
VERTEX
8
0
10
430.000000
20
587.000000
30
0.000000
0
VERTEX
8
0
10
431.000000
20
584.000000
30
0.000000
0
VERTEX
8
0
10
441.000000
20
576.000000
30
0.000000
0
VERTEX
8
0
10
455.000000
20
575.000000
30
0.000000
0
VERTEX
8
0
10
462.000000
20
577.000000
30
0.000000
0
VERTEX
8
0
10
468.000000
20
581.000000
30
0.000000
0
VERTEX
8
0
10
480.000000
20
576.000000
30
0.000000
0
VERTEX
8
0
10
493.000000
20
577.000000
30
0.000000
0
VERTEX
8
0
10
517.000000
20
592.000000
30
0.000000
0
VERTEX
8
0
10
529.000000
20
592.000000
30
0.000000
0
VERTEX
8
0
10
541.000000
20
588.000000
30
0.000000
0
VERTEX
8
0
10
546.000000
20
588.000000
30
0.000000
0
VERTEX
8
0
10
549.000000
20
590.000000
30
0.000000
0
VERTEX
8
0
10
546.000000
20
593.000000
30
0.000000
0
VERTEX
8
0
10
543.000000
20
593.000000
30
0.000000
0
VERTEX
8
0
10
533.000000
20
598.000000
30
0.000000
0
VERTEX
8
0
10
510.000000
20
617.000000
30
0.000000
0
VERTEX
8
0
10
505.000000
20
619.000000
30
0.000000
0
VERTEX
8
0
10
497.000000
20
619.000000
30
0.000000
0
VERTEX
8
0
10
491.000000
20
617.000000
30
0.000000
0
VERTEX
8
0
10
485.000000
20
612.000000
30
0.000000
0
VERTEX
8
0
10
483.000000
20
606.000000
30
0.000000
0
VERTEX
8
0
10
486.000000
20
597.000000
30
0.000000
0
VERTEX
8
0
10
491.000000
20
594.000000
30
0.000000
0
VERTEX
8
0
10
495.000000
20
594.000000
30
0.000000
0
VERTEX
8
0
10
500.000000
20
598.000000
30
0.000000
0
VERTEX
8
0
10
498.000000
20
602.000000
30
0.000000
0
VERTEX
8
0
10
493.000000
20
602.000000
30
0.000000
0
VERTEX
8
0
10
491.000000
20
605.000000
30
0.000000
0
VERTEX
8
0
10
495.000000
20
609.000000
30
0.000000
0
VERTEX
8
0
10
504.000000
20
608.000000
30
0.000000
0
VERTEX
8
0
10
507.000000
20
602.000000
30
0.000000
0
VERTEX
8
0
10
507.000000
20
597.000000
30
0.000000
0
VERTEX
8
0
10
503.000000
20
591.000000
30
0.000000
0
VERTEX
8
0
10
497.000000
20
588.000000
30
0.000000
0
VERTEX
8
0
10
487.000000
20
588.000000
30
0.000000
0
VERTEX
8
0
10
481.000000
20
593.000000
30
0.000000
0
VERTEX
8
0
10
478.000000
20
599.000000
30
0.000000
0
VERTEX
8
0
10
478.000000
20
616.000000
30
0.000000
0
VERTEX
8
0
10
471.000000
20
622.000000
30
0.000000
0
VERTEX
8
0
10
465.000000
20
624.000000
30
0.000000
0
SEQEND
0
POLYLINE
8
0
6
CONTINUOUS
66
1
10
0.0
20
0.0
30
0.000000
0
VERTEX
8
0
10
384.000000
20
621.000000
30
0.000000
0
VERTEX
8
0
10
383.000000
20
622.000000
30
0.000000
0
VERTEX
8
0
10
321.000000
20
622.000000
30
0.000000
0
VERTEX
8
0
10
320.000000
20
620.000000
30
0.000000
0
VERTEX
8
0
10
324.000000
20
618.000000
30
0.000000
0
VERTEX
8
0
10
380.000000
20
617.000000
30
0.000000
0
VERTEX
8
0
10
385.000000
20
619.000000
30
0.000000
0
VERTEX
8
0
10
384.000000
20
621.000000
30
0.000000
0
SEQEND
0
POLYLINE
8
0
6
CONTINUOUS
66
1
10
0.0
20
0.0
30
0.000000
0
VERTEX
8
0
10
203.000000
20
613.000000
30
0.000000
0
VERTEX
8
0
10
202.000000
20
614.000000
30
0.000000
0
VERTEX
8
0
10
197.000000
20
614.000000
30
0.000000
0
VERTEX
8
0
10
189.000000
20
611.000000
30
0.000000
0
VERTEX
8
0
10
183.000000
20
605.000000
30
0.000000
0
VERTEX
8
0
10
180.000000
20
599.000000
30
0.000000
0
VERTEX
8
0
10
181.000000
20
588.000000
30
0.000000
0
VERTEX
8
0
10
186.000000
20
582.000000
30
0.000000
0
VERTEX
8
0
10
192.000000
20
579.000000
30
0.000000
0
VERTEX
8
0
10
202.000000
20
581.000000
30
0.000000
0
VERTEX
8
0
10
207.000000
20
586.000000
30
0.000000
0
VERTEX
8
0
10
207.000000
20
593.000000
30
0.000000
0
VERTEX
8
0
10
205.000000
20
596.000000
30
0.000000
0
VERTEX
8
0
10
201.000000
20
597.000000
30
0.000000
0
VERTEX
8
0
10
195.000000
20
591.000000
30
0.000000
0
VERTEX
8
0
10
192.000000
20
592.000000
30
0.000000
0
VERTEX
8
0
10
193.000000
20
599.000000
30
0.000000
0
VERTEX
8
0
10
199.000000
20
603.000000
30
0.000000
0
VERTEX
8
0
10
205.000000
20
603.000000
30
0.000000
0
VERTEX
8
0
10
210.000000
20
600.000000
30
0.000000
0
VERTEX
8
0
10
214.000000
20
592.000000
30
0.000000
0
VERTEX
8
0
10
211.000000
20
581.000000
30
0.000000
0
VERTEX
8
0
10
203.000000
20
574.000000
30
0.000000
0
VERTEX
8
0
10
191.000000
20
573.000000
30
0.000000
0
VERTEX
8
0
10
182.000000
20
577.000000
30
0.000000
0
VERTEX
8
0
10
176.000000
20
586.000000
30
0.000000
0
VERTEX
8
0
10
174.000000
20
596.000000
30
0.000000
0
VERTEX
8
0
10
167.000000
20
601.000000
30
0.000000
0
VERTEX
8
0
10
159.000000
20
601.000000
30
0.000000
0
VERTEX
8
0
10
152.000000
20
597.000000
30
0.000000
0
VERTEX
8
0
10
148.000000
20
592.000000
30
0.000000
0
VERTEX
8
0
10
148.000000
20
582.000000
30
0.000000
0
VERTEX
8
0
10
152.000000
20
577.000000
30
0.000000
0
VERTEX
8
0
10
160.000000
20
576.000000
30
0.000000
0
VERTEX
8
0
10
165.000000
20
580.000000
30
0.000000
0
VERTEX
8
0
10
165.000000
20
584.000000
30
0.000000
0
VERTEX
8
0
10
163.000000
20
586.000000
30
0.000000
0
VERTEX
8
0
10
156.000000
20
586.000000
30
0.000000
0
VERTEX
8
0
10
156.000000
20
590.000000
30
0.000000
0
VERTEX
8
0
10
159.000000
20
592.000000
30
0.000000
0
VERTEX
8
0
10
167.000000
20
591.000000
30
0.000000
0
VERTEX
8
0
10
171.000000
20
585.000000
30
0.000000
0
VERTEX
8
0
10
171.000000
20
571.000000
30
0.000000
0
VERTEX
8
0
10
175.000000
20
567.000000
30
0.000000
0
VERTEX
8
0
10
186.000000
20
562.000000
30
0.000000
0
VERTEX
8
0
10
199.000000
20
562.000000
30
0.000000
0
VERTEX
8
0
10
207.000000
20
566.000000
30
0.000000
0
VERTEX
8
0
10
213.000000
20
566.000000
30
0.000000
0
VERTEX
8
0
10
223.000000
20
561.000000
30
0.000000
0
VERTEX
8
0
10
233.000000
20
561.000000
30
0.000000
0
VERTEX
8
0
10
243.000000
20
565.000000
30
0.000000
0
VERTEX
8
0
10
256.000000
20
573.000000
30
0.000000
0
VERTEX
8
0
10
273.000000
20
573.000000
30
0.000000
0
VERTEX
8
0
10
285.000000
20
569.000000
30
0.000000
0
VERTEX
8
0
10
291.000000
20
569.000000
30
0.000000
0
VERTEX
8
0
10
295.000000
20
571.000000
30
0.000000
0
VERTEX
8
0
10
283.000000
20
576.000000
30
0.000000
0
VERTEX
8
0
10
258.000000
20
599.000000
30
0.000000
0
VERTEX
8
0
10
246.000000
20
605.000000
30
0.000000
0
VERTEX
8
0
10
238.000000
20
605.000000
30
0.000000
0
VERTEX
8
0
10
233.000000
20
603.000000
30
0.000000
0
VERTEX
8
0
10
225.000000
20
594.000000
30
0.000000
0
VERTEX
8
0
10
226.000000
20
585.000000
30
0.000000
0
VERTEX
8
0
10
231.000000
20
579.000000
30
0.000000
0
VERTEX
8
0
10
235.000000
20
578.000000
30
0.000000
0
VERTEX
8
0
10
243.000000
20
583.000000
30
0.000000
0
VERTEX
8
0
10
241.000000
20
588.000000
30
0.000000
0
VERTEX
8
0
10
237.000000
20
588.000000
30
0.000000
0
VERTEX
8
0
10
236.000000
20
592.000000
30
0.000000
0
VERTEX
8
0
10
238.000000
20
594.000000
30
0.000000
0
VERTEX
8
0
10
243.000000
20
595.000000
30
0.000000
0
VERTEX
8
0
10
247.000000
20
592.000000
30
0.000000
0
VERTEX
8
0
10
248.000000
20
580.000000
30
0.000000
0
VERTEX
8
0
10
244.000000
20
575.000000
30
0.000000
0
VERTEX
8
0
10
238.000000
20
572.000000
30
0.000000
0
VERTEX
8
0
10
230.000000
20
573.000000
30
0.000000
0
VERTEX
8
0
10
223.000000
20
579.000000
30
0.000000
0
VERTEX
8
0
10
220.000000
20
586.000000
30
0.000000
0
VERTEX
8
0
10
220.000000
20
604.000000
30
0.000000
0
VERTEX
8
0
10
214.000000
20
610.000000
30
0.000000
0
VERTEX
8
0
10
208.000000
20
613.000000
30
0.000000
0
VERTEX
8
0
10
203.000000
20
613.000000
30
0.000000
0
SEQEND
0
POLYLINE
8
0
6
CONTINUOUS
66
1
10
0.0
20
0.0
30
0.000000
0
VERTEX
8
0
10
391.000000
20
604.000000
30
0.000000
0
VERTEX
8
0
10
390.000000
20
605.000000
30
0.000000
0
VERTEX
8
0
10
315.000000
20
605.000000
30
0.000000
0
VERTEX
8
0
10
313.000000
20
602.000000
30
0.000000
0
VERTEX
8
0
10
319.000000
20
600.000000
30
0.000000
0
VERTEX
8
0
10
388.000000
20
600.000000
30
0.000000
0
VERTEX
8
0
10
392.000000
20
602.000000
30
0.000000
0
VERTEX
8
0
10
391.000000
20
604.000000
30
0.000000
0
SEQEND
0
POLYLINE
8
0
6
CONTINUOUS
66
1
10
0.0
20
0.0
30
0.000000
0
VERTEX
8
0
10
572.000000
20
591.000000
30
0.000000
0
VERTEX
8
0
10
571.000000
20
592.000000
30
0.000000
0
VERTEX
8
0
10
567.000000
20
592.000000
30
0.000000
0
VERTEX
8
0
10
553.000000
20
584.000000
30
0.000000
0
VERTEX
8
0
10
540.000000
20
582.000000
30
0.000000
0
VERTEX
8
0
10
529.000000
20
586.000000
30
0.000000
0
VERTEX
8
0
10
519.000000
20
586.000000
30
0.000000
0
VERTEX
8
0
10
508.000000
20
580.000000
30
0.000000
0
VERTEX
8
0
10
509.000000
20
578.000000
30
0.000000
0
VERTEX
8
0
10
515.000000
20
577.000000
30
0.000000
0
VERTEX
8
0
10
524.000000
20
569.000000
30
0.000000
0
VERTEX
8
0
10
526.000000
20
557.000000
30
0.000000
0
VERTEX
8
0
10
528.000000
20
555.000000
30
0.000000
0
VERTEX
8
0
10
537.000000
20
557.000000
30
0.000000
0
VERTEX
8
0
10
545.000000
20
561.000000
30
0.000000
0
VERTEX
8
0
10
550.000000
20
561.000000
30
0.000000
0
VERTEX
8
0
10
561.000000
20
549.000000
30
0.000000
0
VERTEX
8
0
10
561.000000
20
547.000000
30
0.000000
0
VERTEX
8
0
10
557.000000
20
544.000000
30
0.000000
0
VERTEX
8
0
10
538.000000
20
538.000000
30
0.000000
0
VERTEX
8
0
10
516.000000
20
528.000000
30
0.000000
0
VERTEX
8
0
10
511.000000
20
522.000000
30
0.000000
0
VERTEX
8
0
10
510.000000
20
508.000000
30
0.000000
0
VERTEX
8
0
10
513.000000
20
505.000000
30
0.000000
0
VERTEX
8
0
10
518.000000
20
505.000000
30
0.000000
0
VERTEX
8
0
10
529.000000
20
510.000000
30
0.000000
0
VERTEX
8
0
10
535.000000
20
516.000000
30
0.000000
0
VERTEX
8
0
10
540.000000
20
524.000000
30
0.000000
0
VERTEX
8
0
10
544.000000
20
524.000000
30
0.000000
0
VERTEX
8
0
10
561.000000
20
500.000000
30
0.000000
0
VERTEX
8
0
10
562.000000
20
493.000000
30
0.000000
0
VERTEX
8
0
10
557.000000
20
485.000000
30
0.000000
0
VERTEX
8
0
10
552.000000
20
481.000000
30
0.000000
0
VERTEX
8
0
10
535.000000
20
475.000000
30
0.000000
0
VERTEX
8
0
10
546.000000
20
467.000000
30
0.000000
0
VERTEX
8
0
10
557.000000
20
455.000000
30
0.000000
0
VERTEX
8
0
10
569.000000
20
448.000000
30
0.000000
0
VERTEX
8
0
10
581.000000
20
446.000000
30
0.000000
0
VERTEX
8
0
10
590.000000
20
449.000000
30
0.000000
0
VERTEX
8
0
10
593.000000
20
452.000000
30
0.000000
0
VERTEX
8
0
10
593.000000
20
571.000000
30
0.000000
0
VERTEX
8
0
10
572.000000
20
591.000000
30
0.000000
0
SEQEND
0
POLYLINE
8
0
6
CONTINUOUS
66
1
10
0.0
20
0.0
30
0.000000
0
VERTEX
8
0
10
344.000000
20
590.000000
30
0.000000
0
VERTEX
8
0
10
343.000000
20
591.000000
30
0.000000
0
VERTEX
8
0
10
332.000000
20
588.000000
30
0.000000
0
VERTEX
8
0
10
315.000000
20
588.000000
30
0.000000
0
VERTEX
8
0
10
314.000000
20
586.000000
30
0.000000
0
VERTEX
8
0
10
319.000000
20
583.000000
30
0.000000
0
VERTEX
8
0
10
386.000000
20
583.000000
30
0.000000
0
VERTEX
8
0
10
391.000000
20
586.000000
30
0.000000
0
VERTEX
8
0
10
389.000000
20
588.000000
30
0.000000
0
VERTEX
8
0
10
360.000000
20
588.000000
30
0.000000
0
VERTEX
8
0
10
355.000000
20
590.000000
30
0.000000
0
VERTEX
8
0
10
344.000000
20
590.000000
30
0.000000
0
SEQEND
0
POLYLINE
8
0
6
CONTINUOUS
66
1
10
0.0
20
0.0
30
0.000000
0
VERTEX
8
0
10
403.000000
20
590.000000
30
0.000000
0
VERTEX
8
0
10
402.000000
20
591.000000
30
0.000000
0
VERTEX
8
0
10
394.000000
20
584.000000
30
0.000000
0
VERTEX
8
0
10
394.000000
20
581.000000
30
0.000000
0
VERTEX
8
0
10
397.000000
20
576.000000
30
0.000000
0
VERTEX
8
0
10
389.000000
20
568.000000
30
0.000000
0
VERTEX
8
0
10
388.000000
20
565.000000
30
0.000000
0
VERTEX
8
0
10
391.000000
20
561.000000
30
0.000000
0
VERTEX
8
0
10
391.000000
20
558.000000
30
0.000000
0
VERTEX
8
0
10
379.000000
20
545.000000
30
0.000000
0
VERTEX
8
0
10
363.000000
20
545.000000
30
0.000000
0
VERTEX
8
0
10
361.000000
20
543.000000
30
0.000000
0
VERTEX
8
0
10
363.000000
20
539.000000
30
0.000000
0
VERTEX
8
0
10
367.000000
20
537.000000
30
0.000000
0
VERTEX
8
0
10
367.000000
20
530.000000
30
0.000000
0
VERTEX
8
0
10
361.000000
20
524.000000
30
0.000000
0
VERTEX
8
0
10
356.000000
20
523.000000
30
0.000000
0
VERTEX
8
0
10
353.000000
20
520.000000
30
0.000000
0
VERTEX
8
0
10
354.000000
20
502.000000
30
0.000000
0
VERTEX
8
0
10
352.000000
20
502.000000
30
0.000000
0
VERTEX
8
0
10
352.000000
20
519.000000
30
0.000000
0
VERTEX
8
0
10
349.000000
20
523.000000
30
0.000000
0
VERTEX
8
0
10
344.000000
20
525.000000
30
0.000000
0
VERTEX
8
0
10
337.000000
20
532.000000
30
0.000000
0
VERTEX
8
0
10
337.000000
20
536.000000
30
0.000000
0
VERTEX
8
0
10
343.000000
20
541.000000
30
0.000000
0
VERTEX
8
0
10
342.000000
20
545.000000
30
0.000000
0
VERTEX
8
0
10
327.000000
20
545.000000
30
0.000000
0
VERTEX
8
0
10
319.000000
20
552.000000
30
0.000000
0
VERTEX
8
0
10
314.000000
20
560.000000
30
0.000000
0
VERTEX
8
0
10
314.000000
20
562.000000
30
0.000000
0
VERTEX
8
0
10
318.000000
20
566.000000
30
0.000000
0
VERTEX
8
0
10
318.000000
20
568.000000
30
0.000000
0
VERTEX
8
0
10
315.000000
20
571.000000
30
0.000000
0
VERTEX
8
0
10
306.000000
20
566.000000
30
0.000000
0
VERTEX
8
0
10
294.000000
20
563.000000
30
0.000000
0
VERTEX
8
0
10
279.000000
20
564.000000
30
0.000000
0
VERTEX
8
0
10
269.000000
20
568.000000
30
0.000000
0
VERTEX
8
0
10
259.000000
20
568.000000
30
0.000000
0
VERTEX
8
0
10
239.000000
20
557.000000
30
0.000000
0
VERTEX
8
0
10
223.000000
20
554.000000
30
0.000000
0
VERTEX
8
0
10
219.000000
20
548.000000
30
0.000000
0
VERTEX
8
0
10
217.000000
20
541.000000
30
0.000000
0
VERTEX
8
0
10
217.000000
20
524.000000
30
0.000000
0
VERTEX
8
0
10
223.000000
20
513.000000
30
0.000000
0
VERTEX
8
0
10
229.000000
20
507.000000
30
0.000000
0
VERTEX
8
0
10
236.000000
20
503.000000
30
0.000000
0
VERTEX
8
0
10
235.000000
20
501.000000
30
0.000000
0
VERTEX
8
0
10
231.000000
20
501.000000
30
0.000000
0
VERTEX
8
0
10
227.000000
20
498.000000
30
0.000000
0
VERTEX
8
0
10
233.000000
20
492.000000
30
0.000000
0
VERTEX
8
0
10
244.000000
20
487.000000
30
0.000000
0
VERTEX
8
0
10
252.000000
20
487.000000
30
0.000000
0
VERTEX
8
0
10
260.000000
20
490.000000
30
0.000000
0
VERTEX
8
0
10
260.000000
20
487.000000
30
0.000000
0
VERTEX
8
0
10
262.000000
20
485.000000
30
0.000000
0
VERTEX
8
0
10
271.000000
20
484.000000
30
0.000000
0
VERTEX
8
0
10
275.000000
20
487.000000
30
0.000000
0
VERTEX
8
0
10
277.000000
20
494.000000
30
0.000000
0
VERTEX
8
0
10
280.000000
20
496.000000
30
0.000000
0
VERTEX
8
0
10
284.000000
20
496.000000
30
0.000000
0
VERTEX
8
0
10
289.000000
20
487.000000
30
0.000000
0
VERTEX
8
0
10
297.000000
20
489.000000
30
0.000000
0
VERTEX
8
0
10
306.000000
20
489.000000
30
0.000000
0
VERTEX
8
0
10
310.000000
20
487.000000
30
0.000000
0
VERTEX
8
0
10
313.000000
20
483.000000
30
0.000000
0
VERTEX
8
0
10
315.000000
20
476.000000
30
0.000000
0
VERTEX
8
0
10
315.000000
20
464.000000
30
0.000000
0
VERTEX
8
0
10
320.000000
20
456.000000
30
0.000000
0
VERTEX
8
0
10
316.000000
20
452.000000
30
0.000000
0
VERTEX
8
0
10
315.000000
20
441.000000
30
0.000000
0
VERTEX
8
0
10
313.000000
20
439.000000
30
0.000000
0
VERTEX
8
0
10
305.000000
20
440.000000
30
0.000000
0
VERTEX
8
0
10
299.000000
20
437.000000
30
0.000000
0
VERTEX
8
0
10
299.000000
20
433.000000
30
0.000000
0
VERTEX
8
0
10
308.000000
20
420.000000
30
0.000000
0
VERTEX
8
0
10
313.000000
20
406.000000
30
0.000000
0
VERTEX
8
0
10
314.000000
20
361.000000
30
0.000000
0
VERTEX
8
0
10
319.000000
20
362.000000
30
0.000000
0
VERTEX
8
0
10
327.000000
20
372.000000
30
0.000000
0
VERTEX
8
0
10
333.000000
20
375.000000
30
0.000000
0
VERTEX
8
0
10
337.000000
20
375.000000
30
0.000000
0
VERTEX
8
0
10
343.000000
20
370.000000
30
0.000000
0
VERTEX
8
0
10
351.000000
20
370.000000
30
0.000000
0
VERTEX
8
0
10
357.000000
20
364.000000
30
0.000000
0
VERTEX
8
0
10
372.000000
20
363.000000
30
0.000000
0
VERTEX
8
0
10
376.000000
20
366.000000
30
0.000000
0
VERTEX
8
0
10
375.000000
20
372.000000
30
0.000000
0
VERTEX
8
0
10
371.000000
20
377.000000
30
0.000000
0
VERTEX
8
0
10
371.000000
20
384.000000
30
0.000000
0
VERTEX
8
0
10
383.000000
20
396.000000
30
0.000000
0
VERTEX
8
0
10
385.000000
20
400.000000
30
0.000000
0
VERTEX
8
0
10
385.000000
20
413.000000
30
0.000000
0
VERTEX
8
0
10
382.000000
20
416.000000
30
0.000000
0
VERTEX
8
0
10
374.000000
20
414.000000
30
0.000000
0
VERTEX
8
0
10
370.000000
20
415.000000
30
0.000000
0
VERTEX
8
0
10
369.000000
20
423.000000
30
0.000000
0
VERTEX
8
0
10
365.000000
20
427.000000
30
0.000000
0
VERTEX
8
0
10
368.000000
20
436.000000
30
0.000000
0
VERTEX
8
0
10
365.000000
20
442.000000
30
0.000000
0
VERTEX
8
0
10
365.000000
20
448.000000
30
0.000000
0
VERTEX
8
0
10
363.000000
20
449.000000
30
0.000000
0
VERTEX
8
0
10
360.000000
20
444.000000
30
0.000000
0
VERTEX
8
0
10
358.000000
20
448.000000
30
0.000000
0
VERTEX
8
0
10
365.000000
20
459.000000
30
0.000000
0
VERTEX
8
0
10
379.000000
20
470.000000
30
0.000000
0
VERTEX
8
0
10
390.000000
20
471.000000
30
0.000000
0
VERTEX
8
0
10
399.000000
20
468.000000
30
0.000000
0
VERTEX
8
0
10
407.000000
20
475.000000
30
0.000000
0
VERTEX
8
0
10
415.000000
20
477.000000
30
0.000000
0
VERTEX
8
0
10
424.000000
20
472.000000
30
0.000000
0
VERTEX
8
0
10
427.000000
20
469.000000
30
0.000000
0
VERTEX
8
0
10
430.000000
20
461.000000
30
0.000000
0
VERTEX
8
0
10
433.000000
20
459.000000
30
0.000000
0
VERTEX
8
0
10
445.000000
20
468.000000
30
0.000000
0
VERTEX
8
0
10
461.000000
20
467.000000
30
0.000000
0
VERTEX
8
0
10
477.000000
20
480.000000
30
0.000000
0
VERTEX
8
0
10
487.000000
20
483.000000
30
0.000000
0
VERTEX
8
0
10
502.000000
20
479.000000
30
0.000000
0
VERTEX
8
0
10
509.000000
20
472.000000
30
0.000000
0
VERTEX
8
0
10
515.000000
20
473.000000
30
0.000000
0
VERTEX
8
0
10
519.000000
20
476.000000
30
0.000000
0
VERTEX
8
0
10
518.000000
20
478.000000
30
0.000000
0
VERTEX
8
0
10
512.000000
20
480.000000
30
0.000000
0
VERTEX
8
0
10
503.000000
20
487.000000
30
0.000000
0
VERTEX
8
0
10
497.000000
20
498.000000
30
0.000000
0
VERTEX
8
0
10
496.000000
20
509.000000
30
0.000000
0
VERTEX
8
0
10
494.000000
20
511.000000
30
0.000000
0
VERTEX
8
0
10
478.000000
20
501.000000
30
0.000000
0
VERTEX
8
0
10
466.000000
20
499.000000
30
0.000000
0
VERTEX
8
0
10
450.000000
20
506.000000
30
0.000000
0
VERTEX
8
0
10
445.000000
20
511.000000
30
0.000000
0
VERTEX
8
0
10
447.000000
20
514.000000
30
0.000000
0
VERTEX
8
0
10
495.000000
20
537.000000
30
0.000000
0
VERTEX
8
0
10
510.000000
20
548.000000
30
0.000000
0
VERTEX
8
0
10
509.000000
20
562.000000
30
0.000000
0
VERTEX
8
0
10
500.000000
20
574.000000
30
0.000000
0
VERTEX
8
0
10
488.000000
20
571.000000
30
0.000000
0
VERTEX
8
0
10
479.000000
20
571.000000
30
0.000000
0
VERTEX
8
0
10
472.000000
20
574.000000
30
0.000000
0
VERTEX
8
0
10
456.000000
20
570.000000
30
0.000000
0
VERTEX
8
0
10
442.000000
20
570.000000
30
0.000000
0
VERTEX
8
0
10
432.000000
20
575.000000
30
0.000000
0
VERTEX
8
0
10
426.000000
20
581.000000
30
0.000000
0
VERTEX
8
0
10
413.000000
20
581.000000
30
0.000000
0
VERTEX
8
0
10
403.000000
20
590.000000
30
0.000000
0
SEQEND
0
POLYLINE
8
0
6
CONTINUOUS
66
1
10
0.0
20
0.0
30
0.000000
0
VERTEX
8
0
10
142.000000
20
581.000000
30
0.000000
0
VERTEX
8
0
10
141.000000
20
582.000000
30
0.000000
0
VERTEX
8
0
10
139.000000
20
582.000000
30
0.000000
0
VERTEX
8
0
10
128.000000
20
571.000000
30
0.000000
0
VERTEX
8
0
10
127.000000
20
502.000000
30
0.000000
0
VERTEX
8
0
10
130.000000
20
500.000000
30
0.000000
0
VERTEX
8
0
10
137.000000
20
505.000000
30
0.000000
0
VERTEX
8
0
10
152.000000
20
505.000000
30
0.000000
0
VERTEX
8
0
10
160.000000
20
513.000000
30
0.000000
0
VERTEX
8
0
10
169.000000
20
517.000000
30
0.000000
0
VERTEX
8
0
10
181.000000
20
516.000000
30
0.000000
0
VERTEX
8
0
10
189.000000
20
509.000000
30
0.000000
0
VERTEX
8
0
10
198.000000
20
509.000000
30
0.000000
0
VERTEX
8
0
10
204.000000
20
512.000000
30
0.000000
0
VERTEX
8
0
10
200.000000
20
522.000000
30
0.000000
0
VERTEX
8
0
10
200.000000
20
535.000000
30
0.000000
0
VERTEX
8
0
10
204.000000
20
543.000000
30
0.000000
0
VERTEX
8
0
10
212.000000
20
551.000000
30
0.000000
0
VERTEX
8
0
10
217.000000
20
553.000000
30
0.000000
0
VERTEX
8
0
10
218.000000
20
556.000000
30
0.000000
0
VERTEX
8
0
10
213.000000
20
559.000000
30
0.000000
0
VERTEX
8
0
10
189.000000
20
556.000000
30
0.000000
0
VERTEX
8
0
10
182.000000
20
557.000000
30
0.000000
0
VERTEX
8
0
10
174.000000
20
561.000000
30
0.000000
0
VERTEX
8
0
10
165.000000
20
570.000000
30
0.000000
0
VERTEX
8
0
10
152.000000
20
570.000000
30
0.000000
0
VERTEX
8
0
10
145.000000
20
576.000000
30
0.000000
0
VERTEX
8
0
10
142.000000
20
581.000000
30
0.000000
0
SEQEND
0
POLYLINE
8
0
6
CONTINUOUS
66
1
10
0.0
20
0.0
30
0.000000
0
VERTEX
8
0
10
347.000000
20
570.000000
30
0.000000
0
VERTEX
8
0
10
346.000000
20
571.000000
30
0.000000
0
VERTEX
8
0
10
325.000000
20
571.000000
30
0.000000
0
VERTEX
8
0
10
323.000000
20
568.000000
30
0.000000
0
VERTEX
8
0
10
327.000000
20
566.000000
30
0.000000
0
VERTEX
8
0
10
383.000000
20
566.000000
30
0.000000
0
VERTEX
8
0
10
385.000000
20
568.000000
30
0.000000
0
VERTEX
8
0
10
383.000000
20
571.000000
30
0.000000
0
VERTEX
8
0
10
347.000000
20
570.000000
30
0.000000
0
SEQEND
0
POLYLINE
8
0
6
CONTINUOUS
66
1
10
0.0
20
0.0
30
0.000000
0
VERTEX
8
0
10
116.000000
20
554.000000
30
0.000000
0
VERTEX
8
0
10
114.000000
20
555.000000
30
0.000000
0
VERTEX
8
0
10
105.000000
20
544.000000
30
0.000000
0
VERTEX
8
0
10
91.000000
20
522.000000
30
0.000000
0
VERTEX
8
0
10
91.000000
20
520.000000
30
0.000000
0
VERTEX
8
0
10
94.000000
20
517.000000
30
0.000000
0
VERTEX
8
0
10
112.000000
20
508.000000
30
0.000000
0
VERTEX
8
0
10
114.000000
20
508.000000
30
0.000000
0
VERTEX
8
0
10
116.000000
20
511.000000
30
0.000000
0
VERTEX
8
0
10
116.000000
20
554.000000
30
0.000000
0
SEQEND
0
POLYLINE
8
0
6
CONTINUOUS
66
1
10
0.0
20
0.0
30
0.000000
0
VERTEX
8
0
10
331.000000
20
553.000000
30
0.000000
0
VERTEX
8
0
10
330.000000
20
554.000000
30
0.000000
0
VERTEX
8
0
10
323.000000
20
553.000000
30
0.000000
0
VERTEX
8
0
10
327.000000
20
549.000000
30
0.000000
0
VERTEX
8
0
10
376.000000
20
548.000000
30
0.000000
0
VERTEX
8
0
10
379.000000
20
551.000000
30
0.000000
0
VERTEX
8
0
10
378.000000
20
553.000000
30
0.000000
0
VERTEX
8
0
10
331.000000
20
553.000000
30
0.000000
0
SEQEND
0
POLYLINE
8
0
6
CONTINUOUS
66
1
10
0.0
20
0.0
30
0.000000
0
VERTEX
8
0
10
608.000000
20
552.000000
30
0.000000
0
VERTEX
8
0
10
607.000000
20
553.000000
30
0.000000
0
VERTEX
8
0
10
605.000000
20
514.000000
30
0.000000
0
VERTEX
8
0
10
605.000000
20
507.000000
30
0.000000
0
VERTEX
8
0
10
610.000000
20
506.000000
30
0.000000
0
VERTEX
8
0
10
629.000000
20
515.000000
30
0.000000
0
VERTEX
8
0
10
631.000000
20
517.000000
30
0.000000
0
VERTEX
8
0
10
631.000000
20
520.000000
30
0.000000
0
VERTEX
8
0
10
621.000000
20
537.000000
30
0.000000
0
VERTEX
8
0
10
608.000000
20
552.000000
30
0.000000
0
SEQEND
0
POLYLINE
8
0
6
CONTINUOUS
66
1
10
0.0
20
0.0
30
0.000000
0
VERTEX
8
0
10
171.000000
20
511.000000
30
0.000000
0
VERTEX
8
0
10
170.000000
20
512.000000
30
0.000000
0
VERTEX
8
0
10
165.000000
20
511.000000
30
0.000000
0
VERTEX
8
0
10
157.000000
20
504.000000
30
0.000000
0
VERTEX
8
0
10
155.000000
20
499.000000
30
0.000000
0
VERTEX
8
0
10
155.000000
20
493.000000
30
0.000000
0
VERTEX
8
0
10
161.000000
20
485.000000
30
0.000000
0
VERTEX
8
0
10
170.000000
20
484.000000
30
0.000000
0
VERTEX
8
0
10
175.000000
20
488.000000
30
0.000000
0
VERTEX
8
0
10
176.000000
20
495.000000
30
0.000000
0
VERTEX
8
0
10
173.000000
20
498.000000
30
0.000000
0
VERTEX
8
0
10
171.000000
20
498.000000
30
0.000000
0
VERTEX
8
0
10
167.000000
20
494.000000
30
0.000000
0
VERTEX
8
0
10
165.000000
20
495.000000
30
0.000000
0
VERTEX
8
0
10
165.000000
20
498.000000
30
0.000000
0
VERTEX
8
0
10
168.000000
20
502.000000
30
0.000000
0
VERTEX
8
0
10
175.000000
20
502.000000
30
0.000000
0
VERTEX
8
0
10
178.000000
20
500.000000
30
0.000000
0
VERTEX
8
0
10
181.000000
20
494.000000
30
0.000000
0
VERTEX
8
0
10
180.000000
20
488.000000
30
0.000000
0
VERTEX
8
0
10
172.000000
20
480.000000
30
0.000000
0
VERTEX
8
0
10
166.000000
20
479.000000
30
0.000000
0
VERTEX
8
0
10
157.000000
20
483.000000
30
0.000000
0
VERTEX
8
0
10
153.000000
20
489.000000
30
0.000000
0
VERTEX
8
0
10
151.000000
20
496.000000
30
0.000000
0
VERTEX
8
0
10
145.000000
20
500.000000
30
0.000000
0
VERTEX
8
0
10
138.000000
20
500.000000
30
0.000000
0
VERTEX
8
0
10
131.000000
20
494.000000
30
0.000000
0
VERTEX
8
0
10
131.000000
20
485.000000
30
0.000000
0
VERTEX
8
0
10
136.000000
20
480.000000
30
0.000000
0
VERTEX
8
0
10
141.000000
20
480.000000
30
0.000000
0
VERTEX
8
0
10
145.000000
20
483.000000
30
0.000000
0
VERTEX
8
0
10
145.000000
20
485.000000
30
0.000000
0
VERTEX
8
0
10
142.000000
20
488.000000
30
0.000000
0
VERTEX
8
0
10
138.000000
20
487.000000
30
0.000000
0
VERTEX
8
0
10
137.000000
20
491.000000
30
0.000000
0
VERTEX
8
0
10
140.000000
20
493.000000
30
0.000000
0
VERTEX
8
0
10
145.000000
20
492.000000
30
0.000000
0
VERTEX
8
0
10
149.000000
20
486.000000
30
0.000000
0
VERTEX
8
0
10
148.000000
20
478.000000
30
0.000000
0
VERTEX
8
0
10
154.000000
20
472.000000
30
0.000000
0
VERTEX
8
0
10
161.000000
20
470.000000
30
0.000000
0
VERTEX
8
0
10
169.000000
20
470.000000
30
0.000000
0
VERTEX
8
0
10
177.000000
20
474.000000
30
0.000000
0
VERTEX
8
0
10
181.000000
20
474.000000
30
0.000000
0
VERTEX
8
0
10
187.000000
20
471.000000
30
0.000000
0
VERTEX
8
0
10
199.000000
20
472.000000
30
0.000000
0
VERTEX
8
0
10
217.000000
20
483.000000
30
0.000000
0
VERTEX
8
0
10
228.000000
20
483.000000
30
0.000000
0
VERTEX
8
0
10
235.000000
20
480.000000
30
0.000000
0
VERTEX
8
0
10
240.000000
20
480.000000
30
0.000000
0
VERTEX
8
0
10
243.000000
20
482.000000
30
0.000000
0
VERTEX
8
0
10
242.000000
20
484.000000
30
0.000000
0
VERTEX
8
0
10
229.000000
20
490.000000
30
0.000000
0
VERTEX
8
0
10
211.000000
20
505.000000
30
0.000000
0
VERTEX
8
0
10
197.000000
20
505.000000
30
0.000000
0
VERTEX
8
0
10
191.000000
20
499.000000
30
0.000000
0
VERTEX
8
0
10
190.000000
20
492.000000
30
0.000000
0
VERTEX
8
0
10
193.000000
20
487.000000
30
0.000000
0
VERTEX
8
0
10
196.000000
20
485.000000
30
0.000000
0
VERTEX
8
0
10
200.000000
20
485.000000
30
0.000000
0
VERTEX
8
0
10
204.000000
20
488.000000
30
0.000000
0
VERTEX
8
0
10
204.000000
20
492.000000
30
0.000000
0
VERTEX
8
0
10
198.000000
20
494.000000
30
0.000000
0
VERTEX
8
0
10
198.000000
20
496.000000
30
0.000000
0
VERTEX
8
0
10
204.000000
20
498.000000
30
0.000000
0
VERTEX
8
0
10
208.000000
20
495.000000
30
0.000000
0
VERTEX
8
0
10
208.000000
20
486.000000
30
0.000000
0
VERTEX
8
0
10
201.000000
20
481.000000
30
0.000000
0
VERTEX
8
0
10
195.000000
20
481.000000
30
0.000000
0
VERTEX
8
0
10
189.000000
20
485.000000
30
0.000000
0
VERTEX
8
0
10
186.000000
20
492.000000
30
0.000000
0
VERTEX
8
0
10
186.000000
20
504.000000
30
0.000000
0
VERTEX
8
0
10
177.000000
20
511.000000
30
0.000000
0
VERTEX
8
0
10
171.000000
20
511.000000
30
0.000000
0
SEQEND
0
POLYLINE
8
0
6
CONTINUOUS
66
1
10
0.0
20
0.0
30
0.000000
0
VERTEX
8
0
10
87.000000
20
506.000000
30
0.000000
0
VERTEX
8
0
10
86.000000
20
507.000000
30
0.000000
0
VERTEX
8
0
10
82.000000
20
506.000000
30
0.000000
0
VERTEX
8
0
10
77.000000
20
495.000000
30
0.000000
0
VERTEX
8
0
10
113.000000
20
451.000000
30
0.000000
0
VERTEX
8
0
10
115.000000
20
455.000000
30
0.000000
0
VERTEX
8
0
10
114.000000
20
458.000000
30
0.000000
0
VERTEX
8
0
10
116.000000
20
461.000000
30
0.000000
0
VERTEX
8
0
10
116.000000
20
490.000000
30
0.000000
0
VERTEX
8
0
10
111.000000
20
495.000000
30
0.000000
0
VERTEX
8
0
10
87.000000
20
506.000000
30
0.000000
0
SEQEND
0
POLYLINE
8
0
6
CONTINUOUS
66
1
10
0.0
20
0.0
30
0.000000
0
VERTEX
8
0
10
639.000000
20
504.000000
30
0.000000
0
VERTEX
8
0
10
638.000000
20
505.000000
30
0.000000
0
VERTEX
8
0
10
630.000000
20
503.000000
30
0.000000
0
VERTEX
8
0
10
608.000000
20
492.000000
30
0.000000
0
VERTEX
8
0
10
605.000000
20
489.000000
30
0.000000
0
VERTEX
8
0
10
603.000000
20
450.000000
30
0.000000
0
VERTEX
8
0
10
605.000000
20
447.000000
30
0.000000
0
VERTEX
8
0
10
607.000000
20
447.000000
30
0.000000
0
VERTEX
8
0
10
645.000000
20
490.000000
30
0.000000
0
VERTEX
8
0
10
645.000000
20
495.000000
30
0.000000
0
VERTEX
8
0
10
639.000000
20
504.000000
30
0.000000
0
SEQEND
0
POLYLINE
8
0
6
CONTINUOUS
66
1
10
0.0
20
0.0
30
0.000000
0
VERTEX
8
0
10
258.000000
20
481.000000
30
0.000000
0
VERTEX
8
0
10
257.000000
20
482.000000
30
0.000000
0
VERTEX
8
0
10
246.000000
20
477.000000
30
0.000000
0
VERTEX
8
0
10
240.000000
20
476.000000
30
0.000000
0
VERTEX
8
0
10
228.000000
20
479.000000
30
0.000000
0
VERTEX
8
0
10
217.000000
20
479.000000
30
0.000000
0
VERTEX
8
0
10
199.000000
20
468.000000
30
0.000000
0
VERTEX
8
0
10
185.000000
20
468.000000
30
0.000000
0
VERTEX
8
0
10
178.000000
20
470.000000
30
0.000000
0
VERTEX
8
0
10
166.000000
20
466.000000
30
0.000000
0
VERTEX
8
0
10
166.000000
20
446.000000
30
0.000000
0
VERTEX
8
0
10
168.000000
20
443.000000
30
0.000000
0
VERTEX
8
0
10
171.000000
20
446.000000
30
0.000000
0
VERTEX
8
0
10
173.000000
20
453.000000
30
0.000000
0
VERTEX
8
0
10
180.000000
20
453.000000
30
0.000000
0
VERTEX
8
0
10
191.000000
20
449.000000
30
0.000000
0
VERTEX
8
0
10
195.000000
20
449.000000
30
0.000000
0
VERTEX
8
0
10
198.000000
20
453.000000
30
0.000000
0
VERTEX
8
0
10
199.000000
20
458.000000
30
0.000000
0
VERTEX
8
0
10
217.000000
20
455.000000
30
0.000000
0
VERTEX
8
0
10
217.000000
20
445.000000
30
0.000000
0
VERTEX
8
0
10
219.000000
20
443.000000
30
0.000000
0
VERTEX
8
0
10
229.000000
20
441.000000
30
0.000000
0
VERTEX
8
0
10
237.000000
20
436.000000
30
0.000000
0
VERTEX
8
0
10
238.000000
20
430.000000
30
0.000000
0
VERTEX
8
0
10
232.000000
20
402.000000
30
0.000000
0
VERTEX
8
0
10
225.000000
20
397.000000
30
0.000000
0
VERTEX
8
0
10
200.000000
20
401.000000
30
0.000000
0
VERTEX
8
0
10
192.000000
20
404.000000
30
0.000000
0
VERTEX
8
0
10
191.000000
20
403.000000
30
0.000000
0
VERTEX
8
0
10
183.000000
20
405.000000
30
0.000000
0
VERTEX
8
0
10
182.000000
20
402.000000
30
0.000000
0
VERTEX
8
0
10
184.000000
20
400.000000
30
0.000000
0
VERTEX
8
0
10
200.000000
20
397.000000
30
0.000000
0
VERTEX
8
0
10
207.000000
20
386.000000
30
0.000000
0
VERTEX
8
0
10
216.000000
20
393.000000
30
0.000000
0
VERTEX
8
0
10
223.000000
20
393.000000
30
0.000000
0
VERTEX
8
0
10
234.000000
20
390.000000
30
0.000000
0
VERTEX
8
0
10
234.000000
20
388.000000
30
0.000000
0
VERTEX
8
0
10
222.000000
20
376.000000
30
0.000000
0
VERTEX
8
0
10
212.000000
20
373.000000
30
0.000000
0
VERTEX
8
0
10
225.000000
20
354.000000
30
0.000000
0
VERTEX
8
0
10
223.000000
20
352.000000
30
0.000000
0
VERTEX
8
0
10
219.000000
20
352.000000
30
0.000000
0
VERTEX
8
0
10
222.000000
20
340.000000
30
0.000000
0
VERTEX
8
0
10
222.000000
20
329.000000
30
0.000000
0
VERTEX
8
0
10
217.000000
20
324.000000
30
0.000000
0
VERTEX
8
0
10
171.000000
20
317.000000
30
0.000000
0
VERTEX
8
0
10
161.000000
20
314.000000
30
0.000000
0
VERTEX
8
0
10
155.000000
20
314.000000
30
0.000000
0
VERTEX
8
0
10
152.000000
20
320.000000
30
0.000000
0
VERTEX
8
0
10
144.000000
20
318.000000
30
0.000000
0
VERTEX
8
0
10
147.000000
20
309.000000
30
0.000000
0
VERTEX
8
0
10
151.000000
20
303.000000
30
0.000000
0
VERTEX
8
0
10
152.000000
20
306.000000
30
0.000000
0
VERTEX
8
0
10
157.000000
20
309.000000
30
0.000000
0
VERTEX
8
0
10
169.000000
20
309.000000
30
0.000000
0
VERTEX
8
0
10
175.000000
20
312.000000
30
0.000000
0
VERTEX
8
0
10
176.000000
20
311.000000
30
0.000000
0
VERTEX
8
0
10
185.000000
20
314.000000
30
0.000000
0
VERTEX
8
0
10
211.000000
20
318.000000
30
0.000000
0
VERTEX
8
0
10
224.000000
20
318.000000
30
0.000000
0
VERTEX
8
0
10
227.000000
20
316.000000
30
0.000000
0
VERTEX
8
0
10
229.000000
20
312.000000
30
0.000000
0
VERTEX
8
0
10
230.000000
20
303.000000
30
0.000000
0
VERTEX
8
0
10
226.000000
20
298.000000
30
0.000000
0
VERTEX
8
0
10
184.000000
20
290.000000
30
0.000000
0
VERTEX
8
0
10
176.000000
20
290.000000
30
0.000000
0
VERTEX
8
0
10
173.000000
20
288.000000
30
0.000000
0
VERTEX
8
0
10
163.000000
20
286.000000
30
0.000000
0
VERTEX
8
0
10
162.000000
20
287.000000
30
0.000000
0
VERTEX
8
0
10
159.000000
20
285.000000
30
0.000000
0
VERTEX
8
0
10
160.000000
20
282.000000
30
0.000000
0
VERTEX
8
0
10
180.000000
20
284.000000
30
0.000000
0
VERTEX
8
0
10
213.000000
20
291.000000
30
0.000000
0
VERTEX
8
0
10
228.000000
20
291.000000
30
0.000000
0
VERTEX
8
0
10
231.000000
20
289.000000
30
0.000000
0
VERTEX
8
0
10
230.000000
20
283.000000
30
0.000000
0
VERTEX
8
0
10
215.000000
20
270.000000
30
0.000000
0
VERTEX
8
0
10
217.000000
20
266.000000
30
0.000000
0
VERTEX
8
0
10
230.000000
20
263.000000
30
0.000000
0
VERTEX
8
0
10
236.000000
20
269.000000
30
0.000000
0
VERTEX
8
0
10
250.000000
20
292.000000
30
0.000000
0
VERTEX
8
0
10
258.000000
20
314.000000
30
0.000000
0
VERTEX
8
0
10
260.000000
20
326.000000
30
0.000000
0
VERTEX
8
0
10
261.000000
20
394.000000
30
0.000000
0
VERTEX
8
0
10
265.000000
20
410.000000
30
0.000000
0
VERTEX
8
0
10
279.000000
20
432.000000
30
0.000000
0
VERTEX
8
0
10
281.000000
20
438.000000
30
0.000000
0
VERTEX
8
0
10
281.000000
20
448.000000
30
0.000000
0
VERTEX
8
0
10
274.000000
20
462.000000
30
0.000000
0
VERTEX
8
0
10
264.000000
20
463.000000
30
0.000000
0
VERTEX
8
0
10
263.000000
20
468.000000
30
0.000000
0
VERTEX
8
0
10
265.000000
20
473.000000
30
0.000000
0
VERTEX
8
0
10
259.000000
20
478.000000
30
0.000000
0
VERTEX
8
0
10
258.000000
20
481.000000
30
0.000000
0
SEQEND
0
POLYLINE
8
0
6
CONTINUOUS
66
1
10
0.0
20
0.0
30
0.000000
0
VERTEX
8
0
10
73.000000
20
479.000000
30
0.000000
0
VERTEX
8
0
10
71.000000
20
480.000000
30
0.000000
0
VERTEX
8
0
10
69.000000
20
478.000000
30
0.000000
0
VERTEX
8
0
10
55.000000
20
435.000000
30
0.000000
0
VERTEX
8
0
10
53.000000
20
423.000000
30
0.000000
0
VERTEX
8
0
10
58.000000
20
422.000000
30
0.000000
0
VERTEX
8
0
10
99.000000
20
436.000000
30
0.000000
0
VERTEX
8
0
10
105.000000
20
440.000000
30
0.000000
0
VERTEX
8
0
10
104.000000
20
444.000000
30
0.000000
0
VERTEX
8
0
10
73.000000
20
479.000000
30
0.000000
0
SEQEND
0
POLYLINE
8
0
6
CONTINUOUS
66
1
10
0.0
20
0.0
30
0.000000
0
VERTEX
8
0
10
130.000000
20
479.000000
30
0.000000
0
VERTEX
8
0
10
128.000000
20
480.000000
30
0.000000
0
VERTEX
8
0
10
125.000000
20
422.000000
30
0.000000
0
VERTEX
8
0
10
126.000000
20
384.000000
30
0.000000
0
VERTEX
8
0
10
131.000000
20
391.000000
30
0.000000
0
VERTEX
8
0
10
133.000000
20
399.000000
30
0.000000
0
VERTEX
8
0
10
138.000000
20
405.000000
30
0.000000
0
VERTEX
8
0
10
143.000000
20
408.000000
30
0.000000
0
VERTEX
8
0
10
152.000000
20
408.000000
30
0.000000
0
VERTEX
8
0
10
157.000000
20
410.000000
30
0.000000
0
VERTEX
8
0
10
154.000000
20
413.000000
30
0.000000
0
VERTEX
8
0
10
146.000000
20
415.000000
30
0.000000
0
VERTEX
8
0
10
139.000000
20
422.000000
30
0.000000
0
VERTEX
8
0
10
138.000000
20
440.000000
30
0.000000
0
VERTEX
8
0
10
145.000000
20
441.000000
30
0.000000
0
VERTEX
8
0
10
151.000000
20
439.000000
30
0.000000
0
VERTEX
8
0
10
154.000000
20
441.000000
30
0.000000
0
VERTEX
8
0
10
147.000000
20
447.000000
30
0.000000
0
VERTEX
8
0
10
145.000000
20
452.000000
30
0.000000
0
VERTEX
8
0
10
146.000000
20
466.000000
30
0.000000
0
VERTEX
8
0
10
150.000000
20
470.000000
30
0.000000
0
VERTEX
8
0
10
145.000000
20
476.000000
30
0.000000
0
VERTEX
8
0
10
135.000000
20
476.000000
30
0.000000
0
VERTEX
8
0
10
130.000000
20
479.000000
30
0.000000
0
SEQEND
0
POLYLINE
8
0
6
CONTINUOUS
66
1
10
0.0
20
0.0
30
0.000000
0
VERTEX
8
0
10
652.000000
20
476.000000
30
0.000000
0
VERTEX
8
0
10
650.000000
20
477.000000
30
0.000000
0
VERTEX
8
0
10
616.000000
20
440.000000
30
0.000000
0
VERTEX
8
0
10
615.000000
20
436.000000
30
0.000000
0
VERTEX
8
0
10
618.000000
20
433.000000
30
0.000000
0
VERTEX
8
0
10
665.000000
20
416.000000
30
0.000000
0
VERTEX
8
0
10
668.000000
20
416.000000
30
0.000000
0
VERTEX
8
0
10
670.000000
20
418.000000
30
0.000000
0
VERTEX
8
0
10
663.000000
20
449.000000
30
0.000000
0
VERTEX
8
0
10
656.000000
20
470.000000
30
0.000000
0
VERTEX
8
0
10
652.000000
20
476.000000
30
0.000000
0
SEQEND
0
POLYLINE
8
0
6
CONTINUOUS
66
1
10
0.0
20
0.0
30
0.000000
0
VERTEX
8
0
10
491.000000
20
474.000000
30
0.000000
0
VERTEX
8
0
10
490.000000
20
475.000000
30
0.000000
0
VERTEX
8
0
10
477.000000
20
474.000000
30
0.000000
0
VERTEX
8
0
10
468.000000
20
464.000000
30
0.000000
0
VERTEX
8
0
10
468.000000
20
452.000000
30
0.000000
0
VERTEX
8
0
10
476.000000
20
444.000000
30
0.000000
0
VERTEX
8
0
10
485.000000
20
443.000000
30
0.000000
0
VERTEX
8
0
10
492.000000
20
449.000000
30
0.000000
0
VERTEX
8
0
10
493.000000
20
454.000000
30
0.000000
0
VERTEX
8
0
10
489.000000
20
459.000000
30
0.000000
0
VERTEX
8
0
10
485.000000
20
459.000000
30
0.000000
0
VERTEX
8
0
10
482.000000
20
455.000000
30
0.000000
0
VERTEX
8
0
10
478.000000
20
456.000000
30
0.000000
0
VERTEX
8
0
10
478.000000
20
459.000000
30
0.000000
0
VERTEX
8
0
10
483.000000
20
465.000000
30
0.000000
0
VERTEX
8
0
10
490.000000
20
465.000000
30
0.000000
0
VERTEX
8
0
10
494.000000
20
463.000000
30
0.000000
0
VERTEX
8
0
10
498.000000
20
457.000000
30
0.000000
0
VERTEX
8
0
10
498.000000
20
450.000000
30
0.000000
0
VERTEX
8
0
10
491.000000
20
440.000000
30
0.000000
0
VERTEX
8
0
10
486.000000
20
438.000000
30
0.000000
0
VERTEX
8
0
10
476.000000
20
438.000000
30
0.000000
0
VERTEX
8
0
10
468.000000
20
443.000000
30
0.000000
0
VERTEX
8
0
10
463.000000
20
451.000000
30
0.000000
0
VERTEX
8
0
10
462.000000
20
457.000000
30
0.000000
0
VERTEX
8
0
10
457.000000
20
461.000000
30
0.000000
0
VERTEX
8
0
10
445.000000
20
461.000000
30
0.000000
0
VERTEX
8
0
10
438.000000
20
454.000000
30
0.000000
0
VERTEX
8
0
10
438.000000
20
445.000000
30
0.000000
0
VERTEX
8
0
10
443.000000
20
439.000000
30
0.000000
0
VERTEX
8
0
10
452.000000
20
439.000000
30
0.000000
0
VERTEX
8
0
10
455.000000
20
442.000000
30
0.000000
0
VERTEX
8
0
10
453.000000
20
447.000000
30
0.000000
0
VERTEX
8
0
10
451.000000
20
448.000000
30
0.000000
0
VERTEX
8
0
10
447.000000
20
446.000000
30
0.000000
0
VERTEX
8
0
10
445.000000
20
450.000000
30
0.000000
0
VERTEX
8
0
10
448.000000
20
453.000000
30
0.000000
0
VERTEX
8
0
10
455.000000
20
453.000000
30
0.000000
0
VERTEX
8
0
10
460.000000
20
447.000000
30
0.000000
0
VERTEX
8
0
10
459.000000
20
436.000000
30
0.000000
0
VERTEX
8
0
10
464.000000
20
431.000000
30
0.000000
0
VERTEX
8
0
10
474.000000
20
427.000000
30
0.000000
0
VERTEX
8
0
10
489.000000
20
428.000000
30
0.000000
0
VERTEX
8
0
10
493.000000
20
431.000000
30
0.000000
0
VERTEX
8
0
10
501.000000
20
431.000000
30
0.000000
0
VERTEX
8
0
10
506.000000
20
428.000000
30
0.000000
0
VERTEX
8
0
10
519.000000
20
428.000000
30
0.000000
0
VERTEX
8
0
10
542.000000
20
442.000000
30
0.000000
0
VERTEX
8
0
10
554.000000
20
442.000000
30
0.000000
0
VERTEX
8
0
10
565.000000
20
438.000000
30
0.000000
0
VERTEX
8
0
10
573.000000
20
440.000000
30
0.000000
0
VERTEX
8
0
10
572.000000
20
442.000000
30
0.000000
0
VERTEX
8
0
10
562.000000
20
445.000000
30
0.000000
0
VERTEX
8
0
10
536.000000
20
466.000000
30
0.000000
0
VERTEX
8
0
10
528.000000
20
469.000000
30
0.000000
0
VERTEX
8
0
10
523.000000
20
469.000000
30
0.000000
0
VERTEX
8
0
10
515.000000
20
466.000000
30
0.000000
0
VERTEX
8
0
10
510.000000
20
461.000000
30
0.000000
0
VERTEX
8
0
10
510.000000
20
450.000000
30
0.000000
0
VERTEX
8
0
10
516.000000
20
445.000000
30
0.000000
0
VERTEX
8
0
10
523.000000
20
445.000000
30
0.000000
0
VERTEX
8
0
10
527.000000
20
449.000000
30
0.000000
0
VERTEX
8
0
10
524.000000
20
453.000000
30
0.000000
0
VERTEX
8
0
10
519.000000
20
453.000000
30
0.000000
0
VERTEX
8
0
10
517.000000
20
456.000000
30
0.000000
0
VERTEX
8
0
10
520.000000
20
459.000000
30
0.000000
0
VERTEX
8
0
10
526.000000
20
459.000000
30
0.000000
0
VERTEX
8
0
10
530.000000
20
457.000000
30
0.000000
0
VERTEX
8
0
10
532.000000
20
453.000000
30
0.000000
0
VERTEX
8
0
10
531.000000
20
445.000000
30
0.000000
0
VERTEX
8
0
10
523.000000
20
439.000000
30
0.000000
0
VERTEX
8
0
10
515.000000
20
439.000000
30
0.000000
0
VERTEX
8
0
10
512.000000
20
440.000000
30
0.000000
0
VERTEX
8
0
10
506.000000
20
446.000000
30
0.000000
0
VERTEX
8
0
10
504.000000
20
467.000000
30
0.000000
0
VERTEX
8
0
10
500.000000
20
471.000000
30
0.000000
0
VERTEX
8
0
10
491.000000
20
474.000000
30
0.000000
0
SEQEND
0
POLYLINE
8
0
6
CONTINUOUS
66
1
10
0.0
20
0.0
30
0.000000
0
VERTEX
8
0
10
433.000000
20
445.000000
30
0.000000
0
VERTEX
8
0
10
431.000000
20
446.000000
30
0.000000
0
VERTEX
8
0
10
426.000000
20
439.000000
30
0.000000
0
VERTEX
8
0
10
419.000000
20
433.000000
30
0.000000
0
VERTEX
8
0
10
410.000000
20
434.000000
30
0.000000
0
VERTEX
8
0
10
408.000000
20
425.000000
30
0.000000
0
VERTEX
8
0
10
399.000000
20
417.000000
30
0.000000
0
VERTEX
8
0
10
400.000000
20
409.000000
30
0.000000
0
VERTEX
8
0
10
413.000000
20
411.000000
30
0.000000
0
VERTEX
8
0
10
409.000000
20
401.000000
30
0.000000
0
VERTEX
8
0
10
409.000000
20
372.000000
30
0.000000
0
VERTEX
8
0
10
411.000000
20
365.000000
30
0.000000
0
VERTEX
8
0
10
416.000000
20
359.000000
30
0.000000
0
VERTEX
8
0
10
438.000000
20
358.000000
30
0.000000
0
VERTEX
8
0
10
461.000000
20
350.000000
30
0.000000
0
VERTEX
8
0
10
475.000000
20
343.000000
30
0.000000
0
VERTEX
8
0
10
485.000000
20
341.000000
30
0.000000
0
VERTEX
8
0
10
495.000000
20
342.000000
30
0.000000
0
VERTEX
8
0
10
494.000000
20
337.000000
30
0.000000
0
VERTEX
8
0
10
489.000000
20
329.000000
30
0.000000
0
VERTEX
8
0
10
482.000000
20
326.000000
30
0.000000
0
VERTEX
8
0
10
477.000000
20
326.000000
30
0.000000
0
VERTEX
8
0
10
465.000000
20
337.000000
30
0.000000
0
VERTEX
8
0
10
448.000000
20
346.000000
30
0.000000
0
VERTEX
8
0
10
437.000000
20
349.000000
30
0.000000
0
VERTEX
8
0
10
425.000000
20
349.000000
30
0.000000
0
VERTEX
8
0
10
423.000000
20
347.000000
30
0.000000
0
VERTEX
8
0
10
440.000000
20
338.000000
30
0.000000
0
VERTEX
8
0
10
457.000000
20
322.000000
30
0.000000
0
VERTEX
8
0
10
478.000000
20
307.000000
30
0.000000
0
VERTEX
8
0
10
482.000000
20
305.000000
30
0.000000
0
VERTEX
8
0
10
488.000000
20
305.000000
30
0.000000
0
VERTEX
8
0
10
501.000000
20
311.000000
30
0.000000
0
VERTEX
8
0
10
518.000000
20
323.000000
30
0.000000
0
VERTEX
8
0
10
530.000000
20
335.000000
30
0.000000
0
VERTEX
8
0
10
539.000000
20
347.000000
30
0.000000
0
VERTEX
8
0
10
539.000000
20
352.000000
30
0.000000
0
VERTEX
8
0
10
526.000000
20
363.000000
30
0.000000
0
VERTEX
8
0
10
510.000000
20
361.000000
30
0.000000
0
VERTEX
8
0
10
503.000000
20
358.000000
30
0.000000
0
VERTEX
8
0
10
499.000000
20
359.000000
30
0.000000
0
VERTEX
8
0
10
501.000000
20
366.000000
30
0.000000
0
VERTEX
8
0
10
516.000000
20
390.000000
30
0.000000
0
VERTEX
8
0
10
538.000000
20
420.000000
30
0.000000
0
VERTEX
8
0
10
538.000000
20
426.000000
30
0.000000
0
VERTEX
8
0
10
533.000000
20
431.000000
30
0.000000
0
VERTEX
8
0
10
525.000000
20
426.000000
30
0.000000
0
VERTEX
8
0
10
516.000000
20
423.000000
30
0.000000
0
VERTEX
8
0
10
507.000000
20
423.000000
30
0.000000
0
VERTEX
8
0
10
499.000000
20
426.000000
30
0.000000
0
VERTEX
8
0
10
493.000000
20
426.000000
30
0.000000
0
VERTEX
8
0
10
486.000000
20
423.000000
30
0.000000
0
VERTEX
8
0
10
471.000000
20
423.000000
30
0.000000
0
VERTEX
8
0
10
463.000000
20
426.000000
30
0.000000
0
VERTEX
8
0
10
454.000000
20
434.000000
30
0.000000
0
VERTEX
8
0
10
442.000000
20
434.000000
30
0.000000
0
VERTEX
8
0
10
436.000000
20
439.000000
30
0.000000
0
VERTEX
8
0
10
433.000000
20
445.000000
30
0.000000
0
SEQEND
0
POLYLINE
8
0
6
CONTINUOUS
66
1
10
0.0
20
0.0
30
0.000000
0
VERTEX
8
0
10
202.000000
20
443.000000
30
0.000000
0
VERTEX
8
0
10
201.000000
20
444.000000
30
0.000000
0
VERTEX
8
0
10
194.000000
20
444.000000
30
0.000000
0
VERTEX
8
0
10
189.000000
20
440.000000
30
0.000000
0
VERTEX
8
0
10
188.000000
20
430.000000
30
0.000000
0
VERTEX
8
0
10
214.000000
20
424.000000
30
0.000000
0
VERTEX
8
0
10
217.000000
20
428.000000
30
0.000000
0
VERTEX
8
0
10
217.000000
20
438.000000
30
0.000000
0
VERTEX
8
0
10
213.000000
20
441.000000
30
0.000000
0
VERTEX
8
0
10
202.000000
20
443.000000
30
0.000000
0
SEQEND
0
POLYLINE
8
0
6
CONTINUOUS
66
1
10
0.0
20
0.0
30
0.000000
0
VERTEX
8
0
10
591.000000
20
440.000000
30
0.000000
0
VERTEX
8
0
10
589.000000
20
441.000000
30
0.000000
0
VERTEX
8
0
10
583.000000
20
437.000000
30
0.000000
0
VERTEX
8
0
10
570.000000
20
433.000000
30
0.000000
0
VERTEX
8
0
10
560.000000
20
434.000000
30
0.000000
0
VERTEX
8
0
10
554.000000
20
437.000000
30
0.000000
0
VERTEX
8
0
10
547.000000
20
436.000000
30
0.000000
0
VERTEX
8
0
10
561.000000
20
424.000000
30
0.000000
0
VERTEX
8
0
10
564.000000
20
418.000000
30
0.000000
0
VERTEX
8
0
10
564.000000
20
407.000000
30
0.000000
0
VERTEX
8
0
10
560.000000
20
396.000000
30
0.000000
0
VERTEX
8
0
10
569.000000
20
395.000000
30
0.000000
0
VERTEX
8
0
10
583.000000
20
387.000000
30
0.000000
0
VERTEX
8
0
10
589.000000
20
381.000000
30
0.000000
0
VERTEX
8
0
10
592.000000
20
383.000000
30
0.000000
0
VERTEX
8
0
10
591.000000
20
440.000000
30
0.000000
0
SEQEND
0
POLYLINE
8
0
6
CONTINUOUS
66
1
10
0.0
20
0.0
30
0.000000
0
VERTEX
8
0
10
162.000000
20
438.000000
30
0.000000
0
VERTEX
8
0
10
160.000000
20
439.000000
30
0.000000
0
VERTEX
8
0
10
159.000000
20
421.000000
30
0.000000
0
VERTEX
8
0
10
162.000000
20
416.000000
30
0.000000
0
VERTEX
8
0
10
165.000000
20
420.000000
30
0.000000
0
VERTEX
8
0
10
167.000000
20
436.000000
30
0.000000
0
VERTEX
8
0
10
165.000000
20
438.000000
30
0.000000
0
VERTEX
8
0
10
162.000000
20
438.000000
30
0.000000
0
SEQEND
0
POLYLINE
8
0
6
CONTINUOUS
66
1
10
0.0
20
0.0
30
0.000000
0
VERTEX
8
0
10
114.000000
20
427.000000
30
0.000000
0
VERTEX
8
0
10
113.000000
20
428.000000
30
0.000000
0
VERTEX
8
0
10
84.000000
20
419.000000
30
0.000000
0
VERTEX
8
0
10
76.000000
20
415.000000
30
0.000000
0
VERTEX
8
0
10
78.000000
20
374.000000
30
0.000000
0
VERTEX
8
0
10
80.000000
20
372.000000
30
0.000000
0
VERTEX
8
0
10
93.000000
20
377.000000
30
0.000000
0
VERTEX
8
0
10
114.000000
20
389.000000
30
0.000000
0
VERTEX
8
0
10
114.000000
20
427.000000
30
0.000000
0
SEQEND
0
POLYLINE
8
0
6
CONTINUOUS
66
1
10
0.0
20
0.0
30
0.000000
0
VERTEX
8
0
10
191.000000
20
424.000000
30
0.000000
0
VERTEX
8
0
10
190.000000
20
425.000000
30
0.000000
0
VERTEX
8
0
10
186.000000
20
423.000000
30
0.000000
0
VERTEX
8
0
10
184.000000
20
411.000000
30
0.000000
0
VERTEX
8
0
10
187.000000
20
408.000000
30
0.000000
0
VERTEX
8
0
10
206.000000
20
404.000000
30
0.000000
0
VERTEX
8
0
10
212.000000
20
408.000000
30
0.000000
0
VERTEX
8
0
10
214.000000
20
413.000000
30
0.000000
0
VERTEX
8
0
10
214.000000
20
417.000000
30
0.000000
0
VERTEX
8
0
10
212.000000
20
420.000000
30
0.000000
0
VERTEX
8
0
10
197.000000
20
424.000000
30
0.000000
0
VERTEX
8
0
10
191.000000
20
424.000000
30
0.000000
0
SEQEND
0
POLYLINE
8
0
6
CONTINUOUS
66
1
10
0.0
20
0.0
30
0.000000
0
VERTEX
8
0
10
610.000000
20
423.000000
30
0.000000
0
VERTEX
8
0
10
609.000000
20
424.000000
30
0.000000
0
VERTEX
8
0
10
605.000000
20
423.000000
30
0.000000
0
VERTEX
8
0
10
604.000000
20
386.000000
30
0.000000
0
VERTEX
8
0
10
607.000000
20
383.000000
30
0.000000
0
VERTEX
8
0
10
637.000000
20
367.000000
30
0.000000
0
VERTEX
8
0
10
639.000000
20
367.000000
30
0.000000
0
VERTEX
8
0
10
642.000000
20
371.000000
30
0.000000
0
VERTEX
8
0
10
644.000000
20
410.000000
30
0.000000
0
VERTEX
8
0
10
635.000000
20
415.000000
30
0.000000
0
VERTEX
8
0
10
610.000000
20
423.000000
30
0.000000
0
SEQEND
0
POLYLINE
8
0
6
CONTINUOUS
66
1
10
0.0
20
0.0
30
0.000000
0
VERTEX
8
0
10
63.000000
20
409.000000
30
0.000000
0
VERTEX
8
0
10
62.000000
20
410.000000
30
0.000000
0
VERTEX
8
0
10
51.000000
20
407.000000
30
0.000000
0
VERTEX
8
0
10
49.000000
20
405.000000
30
0.000000
0
VERTEX
8
0
10
46.000000
20
377.000000
30
0.000000
0
VERTEX
8
0
10
46.000000
20
343.000000
30
0.000000
0
VERTEX
8
0
10
64.000000
20
326.000000
30
0.000000
0
VERTEX
8
0
10
69.000000
20
323.000000
30
0.000000
0
VERTEX
8
0
10
70.000000
20
337.000000
30
0.000000
0
VERTEX
8
0
10
67.000000
20
382.000000
30
0.000000
0
VERTEX
8
0
10
65.000000
20
388.000000
30
0.000000
0
VERTEX
8
0
10
66.000000
20
394.000000
30
0.000000
0
VERTEX
8
0
10
63.000000
20
409.000000
30
0.000000
0
SEQEND
0
POLYLINE
8
0
6
CONTINUOUS
66
1
10
0.0
20
0.0
30
0.000000
0
VERTEX
8
0
10
662.000000
20
404.000000
30
0.000000
0
VERTEX
8
0
10
661.000000
20
405.000000
30
0.000000
0
VERTEX
8
0
10
657.000000
20
404.000000
30
0.000000
0
VERTEX
8
0
10
654.000000
20
362.000000
30
0.000000
0
VERTEX
8
0
10
649.000000
20
321.000000
30
0.000000
0
VERTEX
8
0
10
650.000000
20
317.000000
30
0.000000
0
VERTEX
8
0
10
655.000000
20
318.000000
30
0.000000
0
VERTEX
8
0
10
675.000000
20
336.000000
30
0.000000
0
VERTEX
8
0
10
674.000000
20
396.000000
30
0.000000
0
VERTEX
8
0
10
671.000000
20
401.000000
30
0.000000
0
VERTEX
8
0
10
662.000000
20
404.000000
30
0.000000
0
SEQEND
0
POLYLINE
8
0
6
CONTINUOUS
66
1
10
0.0
20
0.0
30
0.000000
0
VERTEX
8
0
10
158.000000
20
397.000000
30
0.000000
0
VERTEX
8
0
10
157.000000
20
398.000000
30
0.000000
0
VERTEX
8
0
10
154.000000
20
394.000000
30
0.000000
0
VERTEX
8
0
10
146.000000
20
371.000000
30
0.000000
0
VERTEX
8
0
10
144.000000
20
369.000000
30
0.000000
0
VERTEX
8
0
10
131.000000
20
372.000000
30
0.000000
0
VERTEX
8
0
10
125.000000
20
371.000000
30
0.000000
0
VERTEX
8
0
10
125.000000
20
344.000000
30
0.000000
0
VERTEX
8
0
10
143.000000
20
344.000000
30
0.000000
0
VERTEX
8
0
10
146.000000
20
333.000000
30
0.000000
0
VERTEX
8
0
10
151.000000
20
326.000000
30
0.000000
0
VERTEX
8
0
10
153.000000
20
327.000000
30
0.000000
0
VERTEX
8
0
10
151.000000
20
337.000000
30
0.000000
0
VERTEX
8
0
10
151.000000
20
344.000000
30
0.000000
0
VERTEX
8
0
10
157.000000
20
347.000000
30
0.000000
0
VERTEX
8
0
10
171.000000
20
347.000000
30
0.000000
0
VERTEX
8
0
10
175.000000
20
349.000000
30
0.000000
0
VERTEX
8
0
10
200.000000
20
353.000000
30
0.000000
0
VERTEX
8
0
10
205.000000
20
356.000000
30
0.000000
0
VERTEX
8
0
10
194.000000
20
368.000000
30
0.000000
0
VERTEX
8
0
10
182.000000
20
361.000000
30
0.000000
0
VERTEX
8
0
10
166.000000
20
362.000000
30
0.000000
0
VERTEX
8
0
10
161.000000
20
364.000000
30
0.000000
0
VERTEX
8
0
10
157.000000
20
368.000000
30
0.000000
0
VERTEX
8
0
10
155.000000
20
375.000000
30
0.000000
0
VERTEX
8
0
10
158.000000
20
397.000000
30
0.000000
0
SEQEND
0
POLYLINE
8
0
6
CONTINUOUS
66
1
10
0.0
20
0.0
30
0.000000
0
VERTEX
8
0
10
183.000000
20
395.000000
30
0.000000
0
VERTEX
8
0
10
182.000000
20
396.000000
30
0.000000
0
VERTEX
8
0
10
180.000000
20
396.000000
30
0.000000
0
VERTEX
8
0
10
176.000000
20
382.000000
30
0.000000
0
VERTEX
8
0
10
177.000000
20
371.000000
30
0.000000
0
VERTEX
8
0
10
187.000000
20
371.000000
30
0.000000
0
VERTEX
8
0
10
192.000000
20
376.000000
30
0.000000
0
VERTEX
8
0
10
183.000000
20
395.000000
30
0.000000
0
SEQEND
0
POLYLINE
8
0
6
CONTINUOUS
66
1
10
0.0
20
0.0
30
0.000000
0
VERTEX
8
0
10
544.000000
20
381.000000
30
0.000000
0
VERTEX
8
0
10
543.000000
20
382.000000
30
0.000000
0
VERTEX
8
0
10
537.000000
20
380.000000
30
0.000000
0
VERTEX
8
0
10
530.000000
20
373.000000
30
0.000000
0
VERTEX
8
0
10
530.000000
20
371.000000
30
0.000000
0
VERTEX
8
0
10
549.000000
20
362.000000
30
0.000000
0
VERTEX
8
0
10
554.000000
20
366.000000
30
0.000000
0
VERTEX
8
0
10
555.000000
20
371.000000
30
0.000000
0
VERTEX
8
0
10
548.000000
20
379.000000
30
0.000000
0
VERTEX
8
0
10
544.000000
20
381.000000
30
0.000000
0
SEQEND
0
POLYLINE
8
0
6
CONTINUOUS
66
1
10
0.0
20
0.0
30
0.000000
0
VERTEX
8
0
10
113.000000
20
372.000000
30
0.000000
0
VERTEX
8
0
10
112.000000
20
373.000000
30
0.000000
0
VERTEX
8
0
10
109.000000
20
373.000000
30
0.000000
0
VERTEX
8
0
10
104.000000
20
369.000000
30
0.000000
0
VERTEX
8
0
10
104.000000
20
367.000000
30
0.000000
0
VERTEX
8
0
10
112.000000
20
357.000000
30
0.000000
0
VERTEX
8
0
10
114.000000
20
361.000000
30
0.000000
0
VERTEX
8
0
10
113.000000
20
372.000000
30
0.000000
0
SEQEND
0
POLYLINE
8
0
6
CONTINUOUS
66
1
10
0.0
20
0.0
30
0.000000
0
VERTEX
8
0
10
590.000000
20
369.000000
30
0.000000
0
VERTEX
8
0
10
589.000000
20
370.000000
30
0.000000
0
VERTEX
8
0
10
561.000000
20
333.000000
30
0.000000
0
VERTEX
8
0
10
551.000000
20
321.000000
30
0.000000
0
VERTEX
8
0
10
539.000000
20
310.000000
30
0.000000
0
VERTEX
8
0
10
523.000000
20
302.000000
30
0.000000
0
VERTEX
8
0
10
503.000000
20
301.000000
30
0.000000
0
VERTEX
8
0
10
494.000000
20
299.000000
30
0.000000
0
VERTEX
8
0
10
497.000000
20
296.000000
30
0.000000
0
VERTEX
8
0
10
517.000000
20
287.000000
30
0.000000
0
VERTEX
8
0
10
551.000000
20
282.000000
30
0.000000
0
VERTEX
8
0
10
575.000000
20
282.000000
30
0.000000
0
VERTEX
8
0
10
566.000000
20
273.000000
30
0.000000
0
VERTEX
8
0
10
564.000000
20
266.000000
30
0.000000
0
VERTEX
8
0
10
553.000000
20
266.000000
30
0.000000
0
VERTEX
8
0
10
525.000000
20
272.000000
30
0.000000
0
VERTEX
8
0
10
504.000000
20
279.000000
30
0.000000
0
VERTEX
8
0
10
488.000000
20
287.000000
30
0.000000
0
VERTEX
8
0
10
459.000000
20
305.000000
30
0.000000
0
VERTEX
8
0
10
450.000000
20
313.000000
30
0.000000
0
VERTEX
8
0
10
440.000000
20
325.000000
30
0.000000
0
VERTEX
8
0
10
424.000000
20
335.000000
30
0.000000
0
VERTEX
8
0
10
415.000000
20
337.000000
30
0.000000
0
VERTEX
8
0
10
414.000000
20
325.000000
30
0.000000
0
VERTEX
8
0
10
430.000000
20
289.000000
30
0.000000
0
VERTEX
8
0
10
447.000000
20
258.000000
30
0.000000
0
VERTEX
8
0
10
468.000000
20
241.000000
30
0.000000
0
VERTEX
8
0
10
494.000000
20
229.000000
30
0.000000
0
VERTEX
8
0
10
535.000000
20
217.000000
30
0.000000
0
VERTEX
8
0
10
526.000000
20
210.000000
30
0.000000
0
VERTEX
8
0
10
512.000000
20
195.000000
30
0.000000
0
VERTEX
8
0
10
499.000000
20
172.000000
30
0.000000
0
VERTEX
8
0
10
502.000000
20
169.000000
30
0.000000
0
VERTEX
8
0
10
539.000000
20
164.000000
30
0.000000
0
VERTEX
8
0
10
542.000000
20
168.000000
30
0.000000
0
VERTEX
8
0
10
543.000000
20
186.000000
30
0.000000
0
VERTEX
8
0
10
545.000000
20
188.000000
30
0.000000
0
VERTEX
8
0
10
552.000000
20
188.000000
30
0.000000
0
VERTEX
8
0
10
558.000000
20
186.000000
30
0.000000
0
VERTEX
8
0
10
555.000000
20
171.000000
30
0.000000
0
VERTEX
8
0
10
555.000000
20
163.000000
30
0.000000
0
VERTEX
8
0
10
563.000000
20
159.000000
30
0.000000
0
VERTEX
8
0
10
579.000000
20
157.000000
30
0.000000
0
VERTEX
8
0
10
587.000000
20
154.000000
30
0.000000
0
VERTEX
8
0
10
591.000000
20
158.000000
30
0.000000
0
VERTEX
8
0
10
592.000000
20
367.000000
30
0.000000
0
VERTEX
8
0
10
590.000000
20
369.000000
30
0.000000
0
SEQEND
0
POLYLINE
8
0
6
CONTINUOUS
66
1
10
0.0
20
0.0
30
0.000000
0
VERTEX
8
0
10
607.000000
20
369.000000
30
0.000000
0
VERTEX
8
0
10
606.000000
20
370.000000
30
0.000000
0
VERTEX
8
0
10
604.000000
20
368.000000
30
0.000000
0
VERTEX
8
0
10
605.000000
20
353.000000
30
0.000000
0
VERTEX
8
0
10
614.000000
20
362.000000
30
0.000000
0
VERTEX
8
0
10
614.000000
20
364.000000
30
0.000000
0
VERTEX
8
0
10
607.000000
20
369.000000
30
0.000000
0
SEQEND
0
POLYLINE
8
0
6
CONTINUOUS
66
1
10
0.0
20
0.0
30
0.000000
0
VERTEX
8
0
10
92.000000
20
362.000000
30
0.000000
0
VERTEX
8
0
10
91.000000
20
363.000000
30
0.000000
0
VERTEX
8
0
10
83.000000
20
360.000000
30
0.000000
0
VERTEX
8
0
10
80.000000
20
357.000000
30
0.000000
0
VERTEX
8
0
10
84.000000
20
308.000000
30
0.000000
0
VERTEX
8
0
10
110.000000
20
282.000000
30
0.000000
0
VERTEX
8
0
10
113.000000
20
284.000000
30
0.000000
0
VERTEX
8
0
10
113.000000
20
333.000000
30
0.000000
0
VERTEX
8
0
10
98.000000
20
356.000000
30
0.000000
0
VERTEX
8
0
10
92.000000
20
362.000000
30
0.000000
0
SEQEND
0
POLYLINE
8
0
6
CONTINUOUS
66
1
10
0.0
20
0.0
30
0.000000
0
VERTEX
8
0
10
630.000000
20
356.000000
30
0.000000
0
VERTEX
8
0
10
629.000000
20
357.000000
30
0.000000
0
VERTEX
8
0
10
626.000000
20
357.000000
30
0.000000
0
VERTEX
8
0
10
603.000000
20
326.000000
30
0.000000
0
VERTEX
8
0
10
603.000000
20
278.000000
30
0.000000
0
VERTEX
8
0
10
605.000000
20
276.000000
30
0.000000
0
VERTEX
8
0
10
627.000000
20
294.000000
30
0.000000
0
VERTEX
8
0
10
635.000000
20
303.000000
30
0.000000
0
VERTEX
8
0
10
638.000000
20
343.000000
30
0.000000
0
VERTEX
8
0
10
640.000000
20
349.000000
30
0.000000
0
VERTEX
8
0
10
637.000000
20
353.000000
30
0.000000
0
VERTEX
8
0
10
630.000000
20
356.000000
30
0.000000
0
SEQEND
0
POLYLINE
8
0
6
CONTINUOUS
66
1
10
0.0
20
0.0
30
0.000000
0
VERTEX
8
0
10
347.000000
20
348.000000
30
0.000000
0
VERTEX
8
0
10
346.000000
20
349.000000
30
0.000000
0
VERTEX
8
0
10
332.000000
20
342.000000
30
0.000000
0
VERTEX
8
0
10
316.000000
20
342.000000
30
0.000000
0
VERTEX
8
0
10
314.000000
20
340.000000
30
0.000000
0
VERTEX
8
0
10
314.000000
20
335.000000
30
0.000000
0
VERTEX
8
0
10
311.000000
20
326.000000
30
0.000000
0
VERTEX
8
0
10
304.000000
20
319.000000
30
0.000000
0
VERTEX
8
0
10
304.000000
20
285.000000
30
0.000000
0
VERTEX
8
0
10
306.000000
20
257.000000
30
0.000000
0
VERTEX
8
0
10
315.000000
20
213.000000
30
0.000000
0
VERTEX
8
0
10
325.000000
20
184.000000
30
0.000000
0
VERTEX
8
0
10
329.000000
20
181.000000
30
0.000000
0
VERTEX
8
0
10
365.000000
20
179.000000
30
0.000000
0
VERTEX
8
0
10
370.000000
20
183.000000
30
0.000000
0
VERTEX
8
0
10
371.000000
20
196.000000
30
0.000000
0
VERTEX
8
0
10
373.000000
20
201.000000
30
0.000000
0
VERTEX
8
0
10
373.000000
20
217.000000
30
0.000000
0
VERTEX
8
0
10
371.000000
20
223.000000
30
0.000000
0
VERTEX
8
0
10
373.000000
20
234.000000
30
0.000000
0
VERTEX
8
0
10
374.000000
20
258.000000
30
0.000000
0
VERTEX
8
0
10
376.000000
20
271.000000
30
0.000000
0
VERTEX
8
0
10
379.000000
20
279.000000
30
0.000000
0
VERTEX
8
0
10
385.000000
20
319.000000
30
0.000000
0
VERTEX
8
0
10
382.000000
20
320.000000
30
0.000000
0
VERTEX
8
0
10
368.000000
20
313.000000
30
0.000000
0
VERTEX
8
0
10
358.000000
20
313.000000
30
0.000000
0
VERTEX
8
0
10
353.000000
20
316.000000
30
0.000000
0
VERTEX
8
0
10
349.000000
20
329.000000
30
0.000000
0
VERTEX
8
0
10
351.000000
20
345.000000
30
0.000000
0
VERTEX
8
0
10
349.000000
20
348.000000
30
0.000000
0
VERTEX
8
0
10
347.000000
20
348.000000
30
0.000000
0
SEQEND
0
POLYLINE
8
0
6
CONTINUOUS
66
1
10
0.0
20
0.0
30
0.000000
0
VERTEX
8
0
10
196.000000
20
346.000000
30
0.000000
0
VERTEX
8
0
10
195.000000
20
347.000000
30
0.000000
0
VERTEX
8
0
10
175.000000
20
344.000000
30
0.000000
0
VERTEX
8
0
10
172.000000
20
340.000000
30
0.000000
0
VERTEX
8
0
10
172.000000
20
337.000000
30
0.000000
0
VERTEX
8
0
10
174.000000
20
335.000000
30
0.000000
0
VERTEX
8
0
10
196.000000
20
338.000000
30
0.000000
0
VERTEX
8
0
10
199.000000
20
341.000000
30
0.000000
0
VERTEX
8
0
10
199.000000
20
343.000000
30
0.000000
0
VERTEX
8
0
10
196.000000
20
346.000000
30
0.000000
0
SEQEND
0
POLYLINE
8
0
6
CONTINUOUS
66
1
10
0.0
20
0.0
30
0.000000
0
VERTEX
8
0
10
200.000000
20
333.000000
30
0.000000
0
VERTEX
8
0
10
199.000000
20
334.000000
30
0.000000
0
VERTEX
8
0
10
190.000000
20
334.000000
30
0.000000
0
VERTEX
8
0
10
175.000000
20
331.000000
30
0.000000
0
VERTEX
8
0
10
174.000000
20
327.000000
30
0.000000
0
VERTEX
8
0
10
177.000000
20
323.000000
30
0.000000
0
VERTEX
8
0
10
196.000000
20
325.000000
30
0.000000
0
VERTEX
8
0
10
200.000000
20
328.000000
30
0.000000
0
VERTEX
8
0
10
200.000000
20
333.000000
30
0.000000
0
SEQEND
0
POLYLINE
8
0
6
CONTINUOUS
66
1
10
0.0
20
0.0
30
0.000000
0
VERTEX
8
0
10
127.000000
20
328.000000
30
0.000000
0
VERTEX
8
0
10
126.000000
20
329.000000
30
0.000000
0
VERTEX
8
0
10
124.000000
20
327.000000
30
0.000000
0
VERTEX
8
0
10
124.000000
20
318.000000
30
0.000000
0
VERTEX
8
0
10
126.000000
20
316.000000
30
0.000000
0
VERTEX
8
0
10
131.000000
20
316.000000
30
0.000000
0
VERTEX
8
0
10
135.000000
20
319.000000
30
0.000000
0
VERTEX
8
0
10
130.000000
20
323.000000
30
0.000000
0
VERTEX
8
0
10
127.000000
20
328.000000
30
0.000000
0
SEQEND
0
POLYLINE
8
0
6
CONTINUOUS
66
1
10
0.0
20
0.0
30
0.000000
0
VERTEX
8
0
10
50.000000
20
322.000000
30
0.000000
0
VERTEX
8
0
10
49.000000
20
323.000000
30
0.000000
0
VERTEX
8
0
10
48.000000
20
318.000000
30
0.000000
0
VERTEX
8
0
10
52.000000
20
291.000000
30
0.000000
0
VERTEX
8
0
10
61.000000
20
258.000000
30
0.000000
0
VERTEX
8
0
10
65.000000
20
246.000000
30
0.000000
0
VERTEX
8
0
10
68.000000
20
241.000000
30
0.000000
0
VERTEX
8
0
10
79.000000
20
247.000000
30
0.000000
0
VERTEX
8
0
10
82.000000
20
251.000000
30
0.000000
0
VERTEX
8
0
10
100.000000
20
265.000000
30
0.000000
0
VERTEX
8
0
10
104.000000
20
269.000000
30
0.000000
0
VERTEX
8
0
10
104.000000
20
272.000000
30
0.000000
0
VERTEX
8
0
10
80.000000
20
294.000000
30
0.000000
0
VERTEX
8
0
10
61.000000
20
314.000000
30
0.000000
0
VERTEX
8
0
10
50.000000
20
322.000000
30
0.000000
0
SEQEND
0
POLYLINE
8
0
6
CONTINUOUS
66
1
10
0.0
20
0.0
30
0.000000
0
VERTEX
8
0
10
671.000000
20
312.000000
30
0.000000
0
VERTEX
8
0
10
669.000000
20
313.000000
30
0.000000
0
VERTEX
8
0
10
612.000000
20
265.000000
30
0.000000
0
VERTEX
8
0
10
612.000000
20
263.000000
30
0.000000
0
VERTEX
8
0
10
647.000000
20
233.000000
30
0.000000
0
VERTEX
8
0
10
651.000000
20
236.000000
30
0.000000
0
VERTEX
8
0
10
663.000000
20
268.000000
30
0.000000
0
VERTEX
8
0
10
671.000000
20
303.000000
30
0.000000
0
VERTEX
8
0
10
671.000000
20
312.000000
30
0.000000
0
SEQEND
0
POLYLINE
8
0
6
CONTINUOUS
66
1
10
0.0
20
0.0
30
0.000000
0
VERTEX
8
0
10
210.000000
20
311.000000
30
0.000000
0
VERTEX
8
0
10
209.000000
20
312.000000
30
0.000000
0
VERTEX
8
0
10
205.000000
20
310.000000
30
0.000000
0
VERTEX
8
0
10
206.000000
20
302.000000
30
0.000000
0
VERTEX
8
0
10
208.000000
20
299.000000
30
0.000000
0
VERTEX
8
0
10
212.000000
20
303.000000
30
0.000000
0
VERTEX
8
0
10
210.000000
20
311.000000
30
0.000000
0
SEQEND
0
POLYLINE
8
0
6
CONTINUOUS
66
1
10
0.0
20
0.0
30
0.000000
0
VERTEX
8
0
10
192.000000
20
310.000000
30
0.000000
0
VERTEX
8
0
10
191.000000
20
311.000000
30
0.000000
0
VERTEX
8
0
10
188.000000
20
310.000000
30
0.000000
0
VERTEX
8
0
10
189.000000
20
298.000000
30
0.000000
0
VERTEX
8
0
10
191.000000
20
295.000000
30
0.000000
0
VERTEX
8
0
10
195.000000
20
297.000000
30
0.000000
0
VERTEX
8
0
10
194.000000
20
307.000000
30
0.000000
0
VERTEX
8
0
10
192.000000
20
310.000000
30
0.000000
0
SEQEND
0
POLYLINE
8
0
6
CONTINUOUS
66
1
10
0.0
20
0.0
30
0.000000
0
VERTEX
8
0
10
175.000000
20
306.000000
30
0.000000
0
VERTEX
8
0
10
174.000000
20
307.000000
30
0.000000
0
VERTEX
8
0
10
171.000000
20
304.000000
30
0.000000
0
VERTEX
8
0
10
172.000000
20
295.000000
30
0.000000
0
VERTEX
8
0
10
176.000000
20
292.000000
30
0.000000
0
VERTEX
8
0
10
179.000000
20
295.000000
30
0.000000
0
VERTEX
8
0
10
178.000000
20
304.000000
30
0.000000
0
VERTEX
8
0
10
175.000000
20
306.000000
30
0.000000
0
SEQEND
0
POLYLINE
8
0
6
CONTINUOUS
66
1
10
0.0
20
0.0
30
0.000000
0
VERTEX
8
0
10
127.000000
20
305.000000
30
0.000000
0
VERTEX
8
0
10
125.000000
20
306.000000
30
0.000000
0
VERTEX
8
0
10
123.000000
20
246.000000
30
0.000000
0
VERTEX
8
0
10
124.000000
20
220.000000
30
0.000000
0
VERTEX
8
0
10
121.000000
20
163.000000
30
0.000000
0
VERTEX
8
0
10
121.000000
20
160.000000
30
0.000000
0
VERTEX
8
0
10
123.000000
20
158.000000
30
0.000000
0
VERTEX
8
0
10
132.000000
20
158.000000
30
0.000000
0
VERTEX
8
0
10
140.000000
20
161.000000
30
0.000000
0
VERTEX
8
0
10
161.000000
20
163.000000
30
0.000000
0
VERTEX
8
0
10
185.000000
20
168.000000
30
0.000000
0
VERTEX
8
0
10
201.000000
20
169.000000
30
0.000000
0
VERTEX
8
0
10
210.000000
20
172.000000
30
0.000000
0
VERTEX
8
0
10
219.000000
20
182.000000
30
0.000000
0
VERTEX
8
0
10
231.000000
20
208.000000
30
0.000000
0
VERTEX
8
0
10
234.000000
20
220.000000
30
0.000000
0
VERTEX
8
0
10
234.000000
20
227.000000
30
0.000000
0
VERTEX
8
0
10
232.000000
20
229.000000
30
0.000000
0
VERTEX
8
0
10
221.000000
20
229.000000
30
0.000000
0
VERTEX
8
0
10
218.000000
20
230.000000
30
0.000000
0
VERTEX
8
0
10
214.000000
20
235.000000
30
0.000000
0
VERTEX
8
0
10
214.000000
20
241.000000
30
0.000000
0
VERTEX
8
0
10
221.000000
20
249.000000
30
0.000000
0
VERTEX
8
0
10
224.000000
20
255.000000
30
0.000000
0
VERTEX
8
0
10
210.000000
20
255.000000
30
0.000000
0
VERTEX
8
0
10
199.000000
20
257.000000
30
0.000000
0
VERTEX
8
0
10
186.000000
20
250.000000
30
0.000000
0
VERTEX
8
0
10
138.000000
20
243.000000
30
0.000000
0
VERTEX
8
0
10
135.000000
20
252.000000
30
0.000000
0
VERTEX
8
0
10
136.000000
20
274.000000
30
0.000000
0
VERTEX
8
0
10
145.000000
20
284.000000
30
0.000000
0
VERTEX
8
0
10
152.000000
20
286.000000
30
0.000000
0
VERTEX
8
0
10
154.000000
20
288.000000
30
0.000000
0
VERTEX
8
0
10
154.000000
20
291.000000
30
0.000000
0
VERTEX
8
0
10
142.000000
20
291.000000
30
0.000000
0
VERTEX
8
0
10
134.000000
20
294.000000
30
0.000000
0
VERTEX
8
0
10
127.000000
20
305.000000
30
0.000000
0
SEQEND
0
POLYLINE
8
0
6
CONTINUOUS
66
1
10
0.0
20
0.0
30
0.000000
0
VERTEX
8
0
10
204.000000
20
283.000000
30
0.000000
0
VERTEX
8
0
10
203.000000
20
284.000000
30
0.000000
0
VERTEX
8
0
10
163.000000
20
278.000000
30
0.000000
0
VERTEX
8
0
10
157.000000
20
275.000000
30
0.000000
0
VERTEX
8
0
10
156.000000
20
250.000000
30
0.000000
0
VERTEX
8
0
10
158.000000
20
248.000000
30
0.000000
0
VERTEX
8
0
10
163.000000
20
249.000000
30
0.000000
0
VERTEX
8
0
10
182.000000
20
262.000000
30
0.000000
0
VERTEX
8
0
10
180.000000
20
266.000000
30
0.000000
0
VERTEX
8
0
10
167.000000
20
270.000000
30
0.000000
0
VERTEX
8
0
10
163.000000
20
273.000000
30
0.000000
0
VERTEX
8
0
10
186.000000
20
277.000000
30
0.000000
0
VERTEX
8
0
10
196.000000
20
274.000000
30
0.000000
0
VERTEX
8
0
10
205.000000
20
281.000000
30
0.000000
0
VERTEX
8
0
10
204.000000
20
283.000000
30
0.000000
0
SEQEND
0
POLYLINE
8
0
6
CONTINUOUS
66
1
10
0.0
20
0.0
30
0.000000
0
VERTEX
8
0
10
111.000000
20
257.000000
30
0.000000
0
VERTEX
8
0
10
109.000000
20
258.000000
30
0.000000
0
VERTEX
8
0
10
73.000000
20
228.000000
30
0.000000
0
VERTEX
8
0
10
78.000000
20
216.000000
30
0.000000
0
VERTEX
8
0
10
82.000000
20
212.000000
30
0.000000
0
VERTEX
8
0
10
107.000000
20
206.000000
30
0.000000
0
VERTEX
8
0
10
111.000000
20
208.000000
30
0.000000
0
VERTEX
8
0
10
111.000000
20
257.000000
30
0.000000
0
SEQEND
0
POLYLINE
8
0
6
CONTINUOUS
66
1
10
0.0
20
0.0
30
0.000000
0
VERTEX
8
0
10
606.000000
20
251.000000
30
0.000000
0
VERTEX
8
0
10
604.000000
20
252.000000
30
0.000000
0
VERTEX
8
0
10
603.000000
20
202.000000
30
0.000000
0
VERTEX
8
0
10
606.000000
20
199.000000
30
0.000000
0
VERTEX
8
0
10
633.000000
20
203.000000
30
0.000000
0
VERTEX
8
0
10
640.000000
20
212.000000
30
0.000000
0
VERTEX
8
0
10
642.000000
20
220.000000
30
0.000000
0
VERTEX
8
0
10
606.000000
20
251.000000
30
0.000000
0
SEQEND
0
POLYLINE
8
0
6
CONTINUOUS
66
1
10
0.0
20
0.0
30
0.000000
0
VERTEX
8
0
10
95.000000
20
196.000000
30
0.000000
0
VERTEX
8
0
10
93.000000
20
197.000000
30
0.000000
0
VERTEX
8
0
10
91.000000
20
197.000000
30
0.000000
0
VERTEX
8
0
10
90.000000
20
195.000000
30
0.000000
0
VERTEX
8
0
10
106.000000
20
169.000000
30
0.000000
0
VERTEX
8
0
10
108.000000
20
168.000000
30
0.000000
0
VERTEX
8
0
10
111.000000
20
172.000000
30
0.000000
0
VERTEX
8
0
10
111.000000
20
190.000000
30
0.000000
0
VERTEX
8
0
10
106.000000
20
194.000000
30
0.000000
0
VERTEX
8
0
10
95.000000
20
196.000000
30
0.000000
0
SEQEND
0
POLYLINE
8
0
6
CONTINUOUS
66
1
10
0.0
20
0.0
30
0.000000
0
VERTEX
8
0
10
622.000000
20
187.000000
30
0.000000
0
VERTEX
8
0
10
621.000000
20
188.000000
30
0.000000
0
VERTEX
8
0
10
608.000000
20
186.000000
30
0.000000
0
VERTEX
8
0
10
603.000000
20
183.000000
30
0.000000
0
VERTEX
8
0
10
603.000000
20
164.000000
30
0.000000
0
VERTEX
8
0
10
605.000000
20
162.000000
30
0.000000
0
VERTEX
8
0
10
609.000000
20
164.000000
30
0.000000
0
VERTEX
8
0
10
623.000000
20
184.000000
30
0.000000
0
VERTEX
8
0
10
622.000000
20
187.000000
30
0.000000
0
SEQEND
0
POLYLINE
8
0
6
CONTINUOUS
66
1
10
0.0
20
0.0
30
0.000000
0
VERTEX
8
0
10
364.000000
20
171.000000
30
0.000000
0
VERTEX
8
0
10
363.000000
20
172.000000
30
0.000000
0
VERTEX
8
0
10
335.000000
20
172.000000
30
0.000000
0
VERTEX
8
0
10
333.000000
20
169.000000
30
0.000000
0
VERTEX
8
0
10
339.000000
20
166.000000
30
0.000000
0
VERTEX
8
0
10
364.000000
20
166.000000
30
0.000000
0
VERTEX
8
0
10
364.000000
20
171.000000
30
0.000000
0
SEQEND
0
POLYLINE
8
0
6
CONTINUOUS
66
1
10
0.0
20
0.0
30
0.000000
0
VERTEX
8
0
10
350.000000
20
159.000000
30
0.000000
0
VERTEX
8
0
10
349.000000
20
160.000000
30
0.000000
0
VERTEX
8
0
10
330.000000
20
160.000000
30
0.000000
0
VERTEX
8
0
10
327.000000
20
156.000000
30
0.000000
0
VERTEX
8
0
10
327.000000
20
145.000000
30
0.000000
0
VERTEX
8
0
10
329.000000
20
143.000000
30
0.000000
0
VERTEX
8
0
10
360.000000
20
144.000000
30
0.000000
0
VERTEX
8
0
10
363.000000
20
149.000000
30
0.000000
0
VERTEX
8
0
10
364.000000
20
158.000000
30
0.000000
0
VERTEX
8
0
10
360.000000
20
160.000000
30
0.000000
0
VERTEX
8
0
10
350.000000
20
159.000000
30
0.000000
0
SEQEND
0
POLYLINE
8
0
6
CONTINUOUS
66
1
10
0.0
20
0.0
30
0.000000
0
VERTEX
8
0
10
504.000000
20
158.000000
30
0.000000
0
VERTEX
8
0
10
503.000000
20
159.000000
30
0.000000
0
VERTEX
8
0
10
490.000000
20
158.000000
30
0.000000
0
VERTEX
8
0
10
492.000000
20
156.000000
30
0.000000
0
VERTEX
8
0
10
530.000000
20
150.000000
30
0.000000
0
VERTEX
8
0
10
539.000000
20
151.000000
30
0.000000
0
VERTEX
8
0
10
536.000000
20
154.000000
30
0.000000
0
VERTEX
8
0
10
504.000000
20
158.000000
30
0.000000
0
SEQEND
0
POLYLINE
8
0
6
CONTINUOUS
66
1
10
0.0
20
0.0
30
0.000000
0
VERTEX
8
0
10
185.000000
20
157.000000
30
0.000000
0
VERTEX
8
0
10
184.000000
20
158.000000
30
0.000000
0
VERTEX
8
0
10
131.000000
20
150.000000
30
0.000000
0
VERTEX
8
0
10
126.000000
20
148.000000
30
0.000000
0
VERTEX
8
0
10
125.000000
20
146.000000
30
0.000000
0
VERTEX
8
0
10
128.000000
20
143.000000
30
0.000000
0
VERTEX
8
0
10
136.000000
20
143.000000
30
0.000000
0
VERTEX
8
0
10
161.000000
20
149.000000
30
0.000000
0
VERTEX
8
0
10
181.000000
20
151.000000
30
0.000000
0
VERTEX
8
0
10
186.000000
20
155.000000
30
0.000000
0
VERTEX
8
0
10
185.000000
20
157.000000
30
0.000000
0
SEQEND
0
POLYLINE
8
0
6
CONTINUOUS
66
1
10
0.0
20
0.0
30
0.000000
0
VERTEX
8
0
10
489.000000
20
150.000000
30
0.000000
0
VERTEX
8
0
10
488.000000
20
151.000000
30
0.000000
0
VERTEX
8
0
10
479.000000
20
151.000000
30
0.000000
0
VERTEX
8
0
10
466.000000
20
145.000000
30
0.000000
0
VERTEX
8
0
10
456.000000
20
144.000000
30
0.000000
0
VERTEX
8
0
10
453.000000
20
142.000000
30
0.000000
0
VERTEX
8
0
10
456.000000
20
140.000000
30
0.000000
0
VERTEX
8
0
10
467.000000
20
140.000000
30
0.000000
0
VERTEX
8
0
10
483.000000
20
137.000000
30
0.000000
0
VERTEX
8
0
10
485.000000
20
138.000000
30
0.000000
0
VERTEX
8
0
10
490.000000
20
136.000000
30
0.000000
0
VERTEX
8
0
10
506.000000
20
135.000000
30
0.000000
0
VERTEX
8
0
10
523.000000
20
131.000000
30
0.000000
0
VERTEX
8
0
10
537.000000
20
130.000000
30
0.000000
0
VERTEX
8
0
10
539.000000
20
132.000000
30
0.000000
0
VERTEX
8
0
10
539.000000
20
142.000000
30
0.000000
0
VERTEX
8
0
10
537.000000
20
144.000000
30
0.000000
0
VERTEX
8
0
10
489.000000
20
150.000000
30
0.000000
0
SEQEND
0
POLYLINE
8
0
6
CONTINUOUS
66
1
10
0.0
20
0.0
30
0.000000
0
VERTEX
8
0
10
557.000000
20
150.000000
30
0.000000
0
VERTEX
8
0
10
556.000000
20
151.000000
30
0.000000
0
VERTEX
8
0
10
552.000000
20
149.000000
30
0.000000
0
VERTEX
8
0
10
556.000000
20
145.000000
30
0.000000
0
VERTEX
8
0
10
580.000000
20
140.000000
30
0.000000
0
VERTEX
8
0
10
589.000000
20
140.000000
30
0.000000
0
VERTEX
8
0
10
590.000000
20
143.000000
30
0.000000
0
VERTEX
8
0
10
587.000000
20
145.000000
30
0.000000
0
VERTEX
8
0
10
557.000000
20
150.000000
30
0.000000
0
SEQEND
0
POLYLINE
8
0
6
CONTINUOUS
66
1
10
0.0
20
0.0
30
0.000000
0
VERTEX
8
0
10
180.000000
20
146.000000
30
0.000000
0
VERTEX
8
0
10
179.000000
20
147.000000
30
0.000000
0
VERTEX
8
0
10
142.000000
20
142.000000
30
0.000000
0
VERTEX
8
0
10
135.000000
20
140.000000
30
0.000000
0
VERTEX
8
0
10
133.000000
20
138.000000
30
0.000000
0
VERTEX
8
0
10
157.000000
20
115.000000
30
0.000000
0
VERTEX
8
0
10
160.000000
20
113.000000
30
0.000000
0
VERTEX
8
0
10
168.000000
20
113.000000
30
0.000000
0
VERTEX
8
0
10
183.000000
20
118.000000
30
0.000000
0
VERTEX
8
0
10
177.000000
20
129.000000
30
0.000000
0
VERTEX
8
0
10
177.000000
20
134.000000
30
0.000000
0
VERTEX
8
0
10
181.000000
20
143.000000
30
0.000000
0
VERTEX
8
0
10
180.000000
20
146.000000
30
0.000000
0
SEQEND
0
POLYLINE
8
0
6
CONTINUOUS
66
1
10
0.0
20
0.0
30
0.000000
0
VERTEX
8
0
10
558.000000
20
140.000000
30
0.000000
0
VERTEX
8
0
10
557.000000
20
141.000000
30
0.000000
0
VERTEX
8
0
10
554.000000
20
141.000000
30
0.000000
0
VERTEX
8
0
10
552.000000
20
139.000000
30
0.000000
0
VERTEX
8
0
10
552.000000
20
129.000000
30
0.000000
0
VERTEX
8
0
10
555.000000
20
126.000000
30
0.000000
0
VERTEX
8
0
10
571.000000
20
124.000000
30
0.000000
0
VERTEX
8
0
10
580.000000
20
132.000000
30
0.000000
0
VERTEX
8
0
10
580.000000
20
134.000000
30
0.000000
0
VERTEX
8
0
10
574.000000
20
138.000000
30
0.000000
0
VERTEX
8
0
10
558.000000
20
140.000000
30
0.000000
0
SEQEND
0
POLYLINE
8
0
6
CONTINUOUS
66
1
10
0.0
20
0.0
30
0.000000
0
VERTEX
8
0
10
389.000000
20
122.000000
30
0.000000
0
VERTEX
8
0
10
388.000000
20
123.000000
30
0.000000
0
VERTEX
8
0
10
340.000000
20
123.000000
30
0.000000
0
VERTEX
8
0
10
305.000000
20
119.000000
30
0.000000
0
VERTEX
8
0
10
304.000000
20
120.000000
30
0.000000
0
VERTEX
8
0
10
300.000000
20
118.000000
30
0.000000
0
VERTEX
8
0
10
298.000000
20
119.000000
30
0.000000
0
VERTEX
8
0
10
264.000000
20
114.000000
30
0.000000
0
VERTEX
8
0
10
194.000000
20
97.000000
30
0.000000
0
VERTEX
8
0
10
189.000000
20
93.000000
30
0.000000
0
VERTEX
8
0
10
200.000000
20
85.000000
30
0.000000
0
VERTEX
8
0
10
238.000000
20
67.000000
30
0.000000
0
VERTEX
8
0
10
261.000000
20
59.000000
30
0.000000
0
VERTEX
8
0
10
292.000000
20
51.000000
30
0.000000
0
VERTEX
8
0
10
318.000000
20
47.000000
30
0.000000
0
VERTEX
8
0
10
367.000000
20
46.000000
30
0.000000
0
VERTEX
8
0
10
376.000000
20
44.000000
30
0.000000
0
VERTEX
8
0
10
383.000000
20
46.000000
30
0.000000
0
VERTEX
8
0
10
412.000000
20
48.000000
30
0.000000
0
VERTEX
8
0
10
453.000000
20
57.000000
30
0.000000
0
VERTEX
8
0
10
497.000000
20
74.000000
30
0.000000
0
VERTEX
8
0
10
521.000000
20
87.000000
30
0.000000
0
VERTEX
8
0
10
527.000000
20
91.000000
30
0.000000
0
VERTEX
8
0
10
531.000000
20
96.000000
30
0.000000
0
VERTEX
8
0
10
525.000000
20
100.000000
30
0.000000
0
VERTEX
8
0
10
493.000000
20
108.000000
30
0.000000
0
VERTEX
8
0
10
490.000000
20
110.000000
30
0.000000
0
VERTEX
8
0
10
427.000000
20
121.000000
30
0.000000
0
VERTEX
8
0
10
389.000000
20
122.000000
30
0.000000
0
SEQEND
0
POLYLINE
8
0
6
CONTINUOUS
66
1
10
0.0
20
0.0
30
0.000000
0
VERTEX
8
0
10
597.000000
20
62.000000
30
0.000000
0
VERTEX
8
0
10
600.000000
20
62.000000
30
0.000000
0
VERTEX
8
0
10
597.000000
20
59.000000
30
0.000000
0
VERTEX
8
0
10
597.000000
20
62.000000
30
0.000000
0
SEQEND
0
POLYLINE
8
0
6
CONTINUOUS
66
1
10
0.0
20
0.0
30
0.000000
0
VERTEX
8
0
10
477.000000
20
51.000000
30
0.000000
0
VERTEX
8
0
10
476.000000
20
52.000000
30
0.000000
0
VERTEX
8
0
10
472.000000
20
43.000000
30
0.000000
0
VERTEX
8
0
10
473.000000
20
41.000000
30
0.000000
0
VERTEX
8
0
10
477.000000
20
46.000000
30
0.000000
0
VERTEX
8
0
10
477.000000
20
51.000000
30
0.000000
0
SEQEND
0
ENDSEC
0
EOF
